Oops, an error
Loading. Please wait.

Hope Youre Happy tab

version 2
version 2

Whole song

3,343 views 1 this week
3 commentsread comments
1 2 3 4 5
3 more votes to show rating
add to favorites
×
Save as Personal and add changes to this tab that will be seen only by you. Learn more ›
×
You can save this tab as Personal to edit and correct it or add notes. All changes will be seen only by you. Learn more »
launch autoscroll
font size
0
reset
how to read this tab
guitar tuner
edit
Autoscroll
slow
fast
+/-
esc
set tempo
stop
Author
Difficulty
OKAY, so i just started my account today, and its pretty sweet!!
so i hope this tab works out for you. please msg me on your thoughts!!
i personally think its perfect:)
have fun.


INTRO {x1}

E----------------------------------|--------------------------0-------|
B------0---------------------------|--------------------------------0-|
G----------1/2/1-------2-----2/1---|--------1/2/1---------1/2---1/2---|
D----2-----------2---------0-----2-|------2-------2-----2-------------|
A--------0-----------4---0---------|----0-------------0---------------|
E--0---------------0---------------|--2-------------2-----------------|

E----------------------------------|--------0---------------0---------|
B------0---------------0-----------|----------------------0---0-------|
G----------------------------------|------2-------------5-------5-----|
D----2-----6/4/6/4-4/2---2-4/6/4-2-|----4-------------7-----------7---|
A--------0-------------------------|--4-------------7-----------------|
E--0-------------------------------|----------------------------------|

VERSE 

E 0 0 0 0  0  0   
B 9 9 9 10 9  0   
G x x x x  x  6   
D 6 6 6 7  7  6   
A x x x x  x  0   
E 0 0 0 0  0  0   

E 0 0 0 0  0  0  0  0
B 9 9 9 10 9  0  0  0
G x x x x  x  4  6  2
D 6 6 6 7  6  4  6  2
A x x x x  x  0  0  0
E 0 0 0 0  0  0  0  0

E 0 0 0 0  0  0   
B 9 9 9 10 9  0   
G x x x x  x  6   
D 6 6 6 7  7  6   
A x x x x  x  0   
E 0 0 0 0  0  0   

E 0 0 0 0  0  0  0  0
B 9 9 9 10 9  0  0  0
G x x x x  x  4  6  2
D 6 6 6 7  6  4  6  2
A x x x x  x  0  0  0
E 0 0 0 0  0  0  0  0

CHORUS {x2}

E 0  2  0  0  0 0 0  0  0
B 0  2  0  10 9 7 5  7  4
G 1  2  6  x  x x x  x  x
D 2  4  6  7  6 4 2  4  1
A 2  4  0  x  x x x  x  x
E 0  2  0  0  0 0 0  0  0

BRIDGE

E----------------------------------|--------------------------0-------|
B------0---------------------------|--------------------------------0-|
G----------1/2/1-------2-----2/1---|--------1/2/1---------1/2---1/2---|
D----2-----------2---------0-----2-|------2-------2-----2-------------|
A--------0-----------4---0---------|----0-------------0---------------|
E--0---------------0---------------|--2-------------2-----------------|
(same thing as intro)
E----------------------------------|--------0---------------0---------|
B------0---------------0-----------|----------------------0---0-------|
G----------------------------------|------2-------------5-------5-----|
D----2-----6/4/6/4-4/2---2-4/6/4-2-|----4-------------7-----------7---|
A--------0-------------------------|--4-------------7-----------------|
E--0-------------------------------|----------------------------------|

VERSE 

E 0 0 0 0  0  0  
B 9 9 9 10 9  0   
G x x x x  x  6   
D 6 6 6 7  7  6   
A x x x x  x  0   
E 0 0 0 0  0  0 

E 0 0 0 0  0  0  0  0
B 9 9 9 10 9  0  0  0
G x x x x  x  4  6  2
D 6 6 6 7  6  4  6  2
A x x x x  x  0  0  0
E 0 0 0 0  0  0  0  0

E 0 0 0 0  0  0  0       0
B 9 9 9 10 9  0   0 2 2 0
G x x x x  x  6      1
D 6 6 6 7  7  6   
A x x x x  x  0   
E 0 0 0 0  0  0 

E 0 0 0 0  0  0  0  0
B 9 9 9 10 9  0  0  0
G x x x x  x  4  6  2
D 6 6 6 7  6  4  6  2
A x x x x  x  0  0  0
E 0 0 0 0  0  0  0  0

CHORUS {x2)

E 0  2  0  0  0 0 0  0  0
B 0  2  0  10 9 7 5  7  4
G 1  2  6  x  x x x  x  x
D 2  4  6  7  6 4 2  4  1
A 2  4  0  x  x x x  x  x
E 0  2  0  0  0 0 0  0  0

OUTRO
E----------------------------------|--------------------------0-------|
B------0---------------------------|--------------------------------0-|
G----------1/2/1-------2-----2/1---|--------1/2/1---------1/2---1/2---|
D----2-----------2---------0-----2-|------2-------2-----2-------------|
A--------0-----------4---0---------|----0-------------0---------------|
E--0---------------0---------------|--2-------------2-----------------|
(once again, same thing as intro!:D)
E----------------------------------|--------0---------------0---------|
B------0---------------0-----------|----------------------0---0-------|
G----------------------------------|------2-------------5-------5-----|
D----2-----6/4/6/4-4/2---2-4/6/4-2-|----4-------------7-----------7---|
A--------0-------------------------|--4-------------7-----------------|
E--0-------------------------------|----------------------------------|

END ON

E 0
B 0
G 1
D 2
A 2
E 0

contact me at seniorr_nate-306@hotmail.com for any more info!!

Suggest correction
Creating personal tab
Creating personal tab
You can edit any tab online and save it as your Personal.

You can edit, replace or remove any tab part or add personal notes – all changes will be seen only by you.

Personal tabs can be accessed anytime from any device, even offline.
Learn more »
Give kudos to tab author, rate the tab!
1 2 3 4 5
comments
print report bad tab
3 comments total.
0 reply
andrewbiles 4,765 Jun 02, 2006 02:45 AM

The song's called 'Standard Lines', stop downloading music

0 reply
indianguitarist 100 Jun 02, 2006 06:20 AM

damn striaght decent tab tho

0 reply
bitsol1 10 Sep 02, 2006 12:57 PM

hey good job its realy close but i bealeve your intro is a bit off correct me if im wrong but i think this is it
E--------------------------------|--------------------------0-------|
B----0---------------------------|--------------------------------0-|
G--------1-2-1-------2-----2-1---|--------1-2-1---------1/2---1/2---|
D--2-----------2---------0-----2-|------2-------2-----2-------------|
A------0-----------4---0---------|----0-------------0---------------|
E0---------------0---------------|--2-------------2-----------------|

E--------------------------------|--------0---------------0---------|
B----0---------------0-----------|----------------------0---0-------|
G--------------------------------|------2-------------5-------5-----|
D--2-----6/4/6/4-4/2---2-4/6/4-2-|----4-------------7-----------7---|
A------0-------------------------|--4-------------7-----------------|
E0-------------------------------|----------------------------------|

se the first g string psrts you dont slide but hey its the best 1 yet bravo

guest
You may want to rate the tab now too:
select rating
Wanna post a correction for this tab? Suggest correction