Oops, an error
Loading. Please wait.

Screaming Infidelities Tab

version 1
version 1

Whole song

Interactive

218,995 views 192 this week
37 commentsread comments
1 2 3 4 5
x 90
add to favorites
×
Save as Personal and add changes to this tab that will be seen only by you. Learn more ›
×
You can save this tab as Personal to edit and correct it or add notes. All changes will be seen only by you. Learn more »
save as personal
new!
launch autoscroll
font size
0
reset
how to read this tab
guitar tuner
Autoscroll
slow
fast
+/-
esc
set tempo
stop
Tuning:

string 1: e   tuned down 1 and 1/2 steps to   d flat (db)
string 2: B   tuned  up  1 and 1/2 steps to   d flat
string 3: G   tuned down 2 and 1/2 steps to   D flat (Db)
string 4: D   tuned down    1/2    step  to   D flat
string 5: A   tuned down    1/2    step  to   A flat (Ab)
string 6: E   tuned down 1 and 1/2 steps to   D flat

The result is that strings 1 and 2 have the same pitch and
strings 3 and 4 have the same pitch


Note: even though strings 1 and 2 will sound different in
loudness, but will be the same in pitch.  Thus, you can
switch the fretting between them throughout the song, that is:

db|--5-5-5-|
db|--0-0-0-|
Db|--0-0-0-|
Db|--5-5-5-|
Ab|--------|
Db|--------|

can be played like this:

db|--0-0-0-|
db|--5-5-5-|
Db|--0-0-0-|
Db|--5-5-5-|
Ab|--------|
Db|--------|

Whatever you're comfortable with.

Tablature by Eric Tranvinh
As heard on The Swiss Army Romance
questions or comments?  email at fookwanfoo@hotmail.com


[Intro]

db|--5-5-5-|
db|--0-0-0-|
Db|--0-0-0-|
Db|--5-5-5-|
Ab|--------|
Db|--------|


[Verse]

db|-4---4-4-4-4-4-4-4---4-4-4-0-0-0-0---0-0-0-0-0-0-0---0-0-0-5-5-5-|
db|-0---0-0-0-0-0-0-0---0-0-0-0-0-0-0---0-0-0-0-0-0-0---0-0-0-0-0-0-|
Db|-0---0-0-0-0-0-0-0---0-0-0-0-0-0-0---0-0-0-0-0-0-0---0-0-0-0-0-0-|
Db|-4---4-4-4-4-4-4-4---4-4-4-X-X-X-X---X-X-X-X-X-X-X---X-X-X-0-0-0-|
Ab|---------------------------2-2-2-3---3-3-3-3-3-3-3---3-3-3-X-X-X-|
Db|-----------------------------------------------------------5-5-5-|


db|-4---4-4-4-4-4-4-4---4-4-4-0-0-0-2---2-2---2-2-2-2---2-2---5-5-5-|
db|-0---0-0-0-0-0-0-0---0-0-0-0-0-0-0---0-0---0-0-0-0---0-0---0-0-0-|
Db|-0---0-0-0-0-0-0-0---0-0-0-0-0-0-0---0-0---0-0-0-0---0-0---0-0-0-|
Db|-0---0-0-0-0-0-0-0---0-0-0-X-X-X-X---X-X---X-X-X-X---X-X---5-5-5-|
Ab|-X---X-X-X-X-X-X-X---X-X-X-4-4-4-2---2-2---2-2-2-1---1-1---------|
Db|-4---4-4-4-4-4-4-4---4-4-4---------------------------------------|


[Chorus] (as for now we're gonna hear the saddest songs...)

db|-4-5-7---7-5-4---7---7-7-7-5-4---2-------4-------5-------5---5-5-|
db|-0-0-0---0-0-0---0---0-0-0-0-0---0---0-0-0-------0---0-0-0---0-0-|
Db|-0-0-0---0-0-0---0---0-0-0-0-0---0---0-0-0-------0---0-0-0---0-0-|
Db|-0-0-0---0-0-0---X---X-X-X-------X---X-X-X-------X---X-X-X---X-X-|
Ab|-0---------------7---7-7-7-------2---2-2-2-------5---5-5-5---5-5-|
Db|-0-----------------------------------------------5---5-5-5---5-5-|


db|-5-4-0-----0-0-0-2-------4-------7-----7-----7-----7-----7-------|
db|-0-0-0-----0-0-0-0---0-0-0-------0---0-0---0-0---0-0---0-0-------|
Db|-0-0-0-----0-0-0-0---0-0-0-------0---0-0---0-0---0-0---0-0-------|
Db|-0-0-0-----------X---X-X-X-------X---X-X---X-X---X-X---X-X-------|
Ab|-0-0-0-----------2---2-2-2-------7---7-7---7-7---7-7---7-7-------|
Db|-----------------------------------------------------------------|


[Outro]  (Your hair is everywhere, screaming infidelities...)

db|-4---4-4---4-4---4-4---4-4-------0---0-0---0-0---0-0---0-0-------|
db|-0---0-0---0-0---0-0---0-0-------0---0-0---0-0---0-0---0-0-------|
Db|-0---0-0---0-0---0-0---0-0-------0---0-0---0-0---0-0---0-0-------|
Db|-4---4-4---4-4---4-4---4-4-------X---X-X---X-X---X-X---X-X-------|
Ab|-0---0-0---0-0---0-0---0-0-------5---5-5---5-5---5-5---5-5-------|
Db|-----------------------------0---5---5-5---5-5---5-5---5-5----0--|


db|-2---2-2---2-2---2-2---2-2-------0---0-0---0-0---0-0---0-0-------|
db|-2---2-2---2-2---2-2---2-2-------0---0-0---0-0---0-0---0-0-------|
Db|-2---2-2---2-2---2-2---2-2-------0---0-0---0-0---0-0---0-0-------|
Db|-2---2-2---2-2---2-2---2-2-------X---X-X---X-X---X-X---X-X-------|
Ab|-2---2-2---2-2---2-2---2-2-------5---5-5---5-5---5-5---5-5-------|
Db|-2---2-2---2-2---2-2---2-2---X---5---5-5---5-5---5-5---5-5-------|


[Ending]

db|--5-5-5-4-----------------------|
db|--0-0-0-0-----------------------|
Db|--0-0-0-0-----------------------|
Db|--5-5-5-4-----------------------|
Ab|--------0-----------------------|
Db|--------------------------------|



************************************

| b  Bend

************************************
Suggest correction
comments
print report bad tab
37 comments total. Showing first comments.
0 reply
RevBrandonWhite 10 Jan 19, 2003 07:00 PM

all of the tab looks good, except the outro is just slightly wrong. The part where he sings "your hair is everywhere, screaming infidelities"
play :
4-5-2-5
0-0-2-0
0-0-2-0
0-0-2-0
0-0-2-0
0-5-2-0
and that is the 100% way to play it, i got them out of a magazine. (but followe the strumming pattern of the tab, cause that is correct)

0 reply
guitarj1214814 80 Apr 26, 2003 08:00 PM

nice

0 reply
seanarooni 30 Oct 29, 2003 07:00 PM

get someone who can to do it for you...

great tab

guest
Wanna post a correction for this tab? Suggest correction