Oops, an error
Loading. Please wait.

Screaming Infidelities Tab

version 3
version 3

Whole song

Interactive

6,283 views 9 this week
no commentswrite comment
1 2 3 4 5
2 more votes to show rating
add to favorites
×
Save as Personal and add changes to this tab that will be seen only by you. Learn more ›
×
You can save this tab as Personal to edit and correct it or add notes. All changes will be seen only by you. Learn more »
save as personal
new!
launch autoscroll
font size
0
reset
how to read this tab
guitar tuner
Autoscroll
slow
fast
+/-
esc
set tempo
stop
Author
This is an awesome song. I'm almost positive that this is the correct way to play it.
I haven't seen them live, so I can't be 100% sure, but it sounds pretty darn good.


Tuning: C#,Ab,C#,F#,Ab,C# (Db,Ab,Db,Gb,Ab,Db)

Verse:
Db---0--0----0--0---0-0-----------|
Ab---0--0----0--0---0-0-----------|
Gb---12/11---7--7---7-7---7-7-----|
Db---12-12---9/10---7-7---9/8-----|
Ab---10/-9---x--x---x-x---x-x-----|
Db-----------9/10---5/4---9/8-----|

Chorus:(I'm not positive about this, it sounds a little sketchy)
Db----0—-0—-0—-0—-0—-0—-0—-0-0—-0-—0—-0-0-0—-0—-0----|
Ab----9/10/12/10/-9/12/10/-9/7/-9/10/-9/5/7/-9/12----|
Gb---11/12/14/12/11/14/12/11/9/11/12/11/7/9/11/14----|
Db---------------------------------------------------|
Ab---------------------------------------------------|
Db---------------------------------------------------|

Bridge:
Db----0---0---2---0            ---------|
Ab----0---0---2---0             --------|
Gb---11--—7—--4---7             -12/11--|
Db---12—--5—--2---5  (4x) then: -12-12--| (let ring)
Ab----9—--x—--2---x             -10/-9--|
Db----0—--5—--2---5             --------|
Suggest correction
Give kudos to tab author, rate the tab!
1 2 3 4 5
comments
print report bad tab
guest
You may want to rate the tab now too:
select rating
Wanna post a correction for this tab? Suggest correction