Oops, an error
Loading. Please wait.

Screaming Infidelities chords

version 4
version 4

Whole song

Interactive

358 views 3 this week
no commentswrite comment
1 2 3 4 5
3 more votes to show rating
add to favorites
×
Save as Personal and add changes to this tab that will be seen only by you. Learn more ›
×
You can save this tab as Personal to edit and correct it or add notes. All changes will be seen only by you. Learn more »
launch autoscroll
font size
0
reset
transpose
0
reset
simplify chords
display chords
guitar tuner
edit
Autoscroll
slow
fast
+/-
esc
set tempo
stop
About this tab version
In C# Open Tuning, the tuning of the original. Was this info helpful? Yes No
Strumming Is this strumming pattern correct? Yes No
verse 125 bpm
1
&
2
&
3
&
4
&
5
&
6
&
7
&
8
&
Listen
Screaming Infidelities
Album: The Places You Have Come to Fear the Most

Note: 
This version from Places You Have Come is slightly different than Swiss Army Romances version.

Open C# Tuning
C#2 G#2 C#3 C#3 C#4 #4
(From standard tuning: C#down G#down C#down C#down C#up C#down)



C#sus4 - 000005
C# -     000000 or 000004
A#m -    020002 or 020004
B -      x30000
F# -     500000 or 500005
C#/F -   400000 or 400004
G# -     x00000 or 777000
G#/C -   x40000
A -      x10000
F#m -    222000
G#m/F# - 070000


[Verse 1]

C#sus4 C#
         I’m missing your bed
A#m      A
I never sleep, avoiding the spots where
F#            C#/F
we’d have to speak, and this bottle of beast
   G#/C   A#m   A
Is taking me home
C#sus4 C#
         Im cuddling close to
A#m          B
blankets and sheets, but you’re not alone And
F#            C#/F
you're not discreet, make sure I know who's
G#/C   A#m   A
taking you home
C#sus4 C#
         I’m reading your note
A#m   B
Over again, and there’s not a word
     F#      C#/F
That I comprehend, except when you signed it,
        G#/C     A#m           A
“I will love you always and forever”


[Interlude 1]
        C#           G#m/F#         A#m           F#
c#|-4-5-7--7-5-4-|-7--7-7-7-5-4-|-2------4-|-5------5--5-5-|
c#|-0-0-0--0-0-0-|-0--0-0-0-0-0-|-0--0-0-0-|-0--0-0-0--0-0-|
C#|-0-0-0--0-0-0-|-0--0-0-0-0-0-|-0--0-0-0-|-0--0-0-0--0-0-|
C#|-0-0-0--0-0-0-|--------------|----------|---------------|
G#|-0------------|-7--7-7-7-----|-2--2-2-2-|-5--5-5-5--5-5-|
C#|-0------------|--------------|----------|-5--5-5-5--5-5-|

      C#/F           A#m             G#m/F#
c#|-5-4-0--0-0-0-|-2------4-|-7----7----7----7----7-|
c#|-0-0-0--0-0-0-|-0--0-0-0-|-0--0-0--0-0--0-0--0-0-|
C#|-0-0-0--0-0-0-|-0--0-0-0-|-0--0-0--0-0--0-0--0-0-|
C#|-0-0-0--------|----------|-----------------------|
G#|-0-0-0--------|-2--2-2-2-|-7--7-7--7-7--7-7--7-7-|
C#|--------------|----------|-----------------------|


[Chorus]

     C#             G#
Well as for now I’m gonna
         A#m
hear the saddest songs
    F#            C#/F
And sit alone and wonder
A#m          G#
  How you're making out
    C#           G#
But as for me, I wish that
       A#m           F#
I were anywhere with anyone
C#/F    A#m    G#
Making out


[Verse 2]

C#sus4 C#
         I'm missing your laugh 
 A#m        B
how did it break? And when did your eyes
  F#          C#/F
begin to look fake? I hope you're as happy
   G#/C      A#m       A
as you're pretending
C#sus4 C#
         I'm cuddling close
   A#m          B
to blankets and sheets, and I am alone        
F#      C#/F
in my defeat. I wish I knew you
      G#/C  A#m A
were safely at home
C#sus4 C#
         I'm missing your bed
A#m      B
I never sleep, avoiding the spots
      F#            C#/F
where we'd have to speak, and this bottle of beast
   G#/C   A#m    A
is taking me home


[Interlude 1]

        C#           G#/Ebm         A#m           F#
c#|-4-5-7--7-5-4-|-7--7-7-7-5-4-|-2------4-|-5------5--5-5-|
c#|-0-0-0--0-0-0-|-0--0-0-0-0-0-|-0--0-0-0-|-0--0-0-0--0-0-|
C#|-0-0-0--0-0-0-|-0--0-0-0-0-0-|-0--0-0-0-|-0--0-0-0--0-0-|
C#|-0-0-0--0-0-0-|--------------|----------|---------------|
G#|-0------------|-7--7-7-7-----|-2--2-2-2-|-5--5-5-5--5-5-|
C#|-0------------|--------------|----------|-5--5-5-5--5-5-|

      C#/F           A#m             G#m/F#
c#|-5-4-0--0-0-0-|-2------4-|-7----7----7----7----7-|
c#|-0-0-0--0-0-0-|-0--0-0-0-|-0--0-0--0-0--0-0--0-0-|
C#|-0-0-0--0-0-0-|-0--0-0-0-|-0--0-0--0-0--0-0--0-0-|
C#|-0-0-0--------|----------|-----------------------|
G#|-0-0-0--------|-2--2-2-2-|-7--7-7--7-7--7-7--7-7-|
C#|--------------|----------|-----------------------|

[Chorus]

     C#             G#
Well as for now I’m gonna
         A#m
hear the saddest songs
    F#            C#/F
And sit alone and wonder
A#m          G#
  How you're making out
    C#           G#
But as for me, I wish that
       A#m           F#
I were anywhere with anyone
C#/F    A#m    G#
Making out


[Outro]
C#                F#          
  Your hair is everywhere 
F#m
screaming infidelities 
    F#
and taking it's wear

C#                F#          
  Your hair is everywhere 
F#m
screaming infidelities 
    F#
and taking it's wear

C#                F#          
  Your hair is everywhere 
F#m
screaming infidelities 
    F#
and taking it's wear

C#                F#          
  Your hair is everywhere 
F#m
screaming infidelities 
    F#
and taking it's wear

[Ourto]
A#m C#

            
            
Suggest correction
Creating personal tab
Creating personal tab
You can edit any tab online and save it as your Personal.

You can edit, replace or remove any tab part or add personal notes – all changes will be seen only by you.

Personal tabs can be accessed anytime from any device, even offline.
Learn more »
Give kudos to tab author, rate the tab!
1 2 3 4 5
comments
print report bad tab
guest
You may want to rate the tab now too:
select rating
Wanna post a correction for this tab? Suggest correction