Oops, an error
Loading. Please wait.

Several Ways To Die Trying chords

version 2
version 2

Whole song

2,738 views 9 this week
no commentswrite comment
1 2 3 4 5
x 3
add to favorites
×
Save as Personal and add changes to this tab that will be seen only by you. Learn more ›
×
You can save this tab as Personal to edit and correct it or add notes. All changes will be seen only by you. Learn more »
launch autoscroll
font size
0
reset
transpose
0
reset
display chords
guitar tuner
edit
Autoscroll
slow
fast
+/-
esc
set tempo
stop
Strumming
There is no strumming pattern for this song yet. and get +5 IQ
Capo I

All chords and tabs relative to capo

Intro
E-------------------------------------------------------------------------|
B-------------------------------------------------------------------------|
G------7------------------------------------------------------------------|
D------7----------------------4-------------------------------------------|
A------5-------5-4---------------5--5/7/5---5/7/5----5/7/5----------------|
E------5-----5-------------5------------------------------------8-7-------|

E---------------------------------------------------------------------------------------------|
B-------------------------------------7--7--7--7----------------------------------------------|
G------7-----------------------------7--7--7--7---7--7----------------------------------------|
D------7----------------------4------7--7--7--7---7--7----------------------------------------|
A------5-------5-4---------------------------------5--5-----5/7/5---5/7/5----5/7/5------------|
E------5-----5-------------5-------------------------------------------------------------8-7--|


	D			A		        G
Pacific Sun, you should have warned us, it gets so cold here.
	  Gm					D
And the night can freeze, before you set it on fire.
		         A
And our flares go unnoticed.
G                   Gm			          D
Dimminished, faded just as soon as they are fired.
	       A    G             Gm
We are, we are, intrigued
D	       A    G	      Gm
We are, we are, invisible.
Bm			   G			  Em			       G
Oh, how we've shouted, how we've screamed, take notice, take interest, take me with you.
       G		        Em
But all our fears fall on deaf ears.

D			         Em		   G		  D
Tonight, they're burning the roads they built to lead us to the light.
		    Em		       G	       D
And blinding our hearts with their shining lies,
		    Em	     G           D
while closing our caskets cold and tight.
		   Em    G	D
But I'm dying to live.

Pacific sun, you should have warned us, these heights are dizzying,
and the climb can kill you long before the fall.
And our trails go unmarked and unmapped and covered
just as soon as they are crossed.

We are, we are, intriguing. We are, we are, desirable.

Oh how we've shouted, how we've screamed,
take notice, take interest, take me with you.

But all our fears fall on deaf ears.

Tonight, they're burning the roads they built to lead us to the light.
And blinding our hearts with their shining lies,
while closing our caskets cold and tight. But I'm dying to live.

            
            
Suggest correction
Creating personal tab
Creating personal tab
You can edit any tab online and save it as your Personal.

You can edit, replace or remove any tab part or add personal notes – all changes will be seen only by you.

Personal tabs can be accessed anytime from any device, even offline.
Learn more »
Give kudos to tab author, rate the tab!
1 2 3 4 5
comments
print report bad tab
guest
Wanna post a correction for this tab? Suggest correction