Oops, an error
Loading. Please wait.

Stolen tab

version 2
version 2

Whole song

Interactive

136,006 views 30 this week
10 commentsread comments
1 2 3 4 5
x 28
add to favorites
×
Save as Personal and add changes to this tab that will be seen only by you. Learn more ›
×
You can save this tab as Personal to edit and correct it or add notes. All changes will be seen only by you. Learn more »
launch autoscroll
font size
0
reset
how to read this tab
guitar tuner
edit
Autoscroll
slow
fast
+/-
esc
set tempo
stop
Author
Difficulty
Dashboard Confessional-Stolen
leave a comment, please

tuning: half step down

intro lead guitar
e--------------------------------------------------------------------|
B---------12--------12--------12--------12--------12--------12-------|
G---11h13-----11h13-----11h13-----11h13-----11h13-----11h13----------|
D--------------------------------------------------------------------|
A--------------------------------------------------------------------|
E--------------------------------------------------------------------|

e--------------------------------------------------------------------|
B---------12---------------------------------------------------------|
G---11h13---11-------------------------------------------------------|
D-------------14-----------------------------------------------------|
A--------------------------------------------------------------------|
E--------------------------------------------------------------------|

rhythm guitar for intro,verse, and chorus "you watched the season..."
e--------------------------------------------------------------------|
B--------------------------------------------------------------------|
G----9----9----9----9------------------------------------------------|
D----9----9----9----9------------------------------------------------|
A----7----0----X----0------------------------------------------------|
E----0----X----9----X------------------------------------------------|

chorus lead guitar
e-----------------------------7------------------------------7-------|
B----5----5----5----5----9---------5----5----9----9---5---5------5---|
G--------------------------------------------------------------------|
D--------------------------------------------------------------------|
A--------------------------------------------------------------------|
E--------------------------------------------------------------------|

verse 2 "invitations only grand farewells..."
lead guitar
e---------------------------------------------------------11h114-----|
B----4-----------------------------------------------12--------------|
G--------0-----0-----------------------------------------------------|x4
D--------------------------------------------------------------------|
A-----------4--------------------------------------------------------|
E--------------------------------------------------------------------|

rhythm guitar
e--------------------------------------------------------------------|
B--------------------------------------------------------------------|
G-----4----6----4----------------------------------------------------|
D-----4----6----2----------------------------------------------------|
A-----2----4----0----------------------------------------------------|
E-----X----X----X----------------------------------------------------|

Bridge "and from the ballroom floor we are in celebration..."
rhythm guitar
e----0------0-------0-------0----------------------------------------|
B----0------0-------0-------0----------------------------------------|
G----1------2-------6-------6----------------------------------------|
D----2------2-------6-------7----------------------------------------|
A----2------0-------4-------7----------------------------------------|
E----0------0-------0-------5----------------------------------------|

"sleep well..."
rhythm guitar
e--------------------------------------------------------------------|
B--------------------------------------------------------------------|
G----9----9----------------------------------------------------------|
D----9----9----------------------------------------------------------|
A----7----0----------------------------------------------------------|
E----0----X----------------------------------------------------------|

"watch you spin around in the highest heels..." (all the way to the end)
rhythm guitar
e----0------0-------0-------0----------------------------------------|
B----0------0-------0-------0----------------------------------------|
G----1------2-------6-------6----------------------------------------|
D----2------2-------6-------7----------------------------------------|
A----2------0-------4-------7----------------------------------------|
E----0------0-------0-------5----------------------------------------|

lead guitar just plays intro during the last chorus

            
            
Suggest correction
Creating personal tab
Creating personal tab
You can edit any tab online and save it as your Personal.

You can edit, replace or remove any tab part or add personal notes – all changes will be seen only by you.

Personal tabs can be accessed anytime from any device, even offline.
Learn more »
comments
print report bad tab
10 comments total. Showing first comments.
0 reply
johnlu 82 Aug 27, 2006 06:09 AM

sorry guys, the 2nd verse lead should be played like this:

e-------------------------------------------11h14----
b---4---0-----0--------------------------12----------
g----------------------------------------------------
d----------4-----------------------------------------
a----------------------------------------------------
e----------------------------------------------------

-2 reply
marcelorf 10 Oct 12, 2006 09:15 AM

Johnlu, I think you should tell that you wrote the tab 1/2 step down!
:)

0 reply
XxDontxWaitXx 51 Dec 10, 2006 05:50 PM

haha i was confused, for both comments lol. thank you johnlu, i approve! 5 stars.

guest
You may want to rate the tab now too:
select rating
Wanna post a correction for this tab? Suggest correction