Oops, an error
Loading. Please wait.

Stolen tab

version 3
version 3

Whole song

Interactive

36,716 views 3 this week
no commentswrite comment
1 2 3 4 5
x 9
add to favorites
×
Save as Personal and add changes to this tab that will be seen only by you. Learn more ›
×
You can save this tab as Personal to edit and correct it or add notes. All changes will be seen only by you. Learn more »
launch autoscroll
font size
0
reset
how to read this tab
guitar tuner
edit
Autoscroll
slow
fast
+/-
esc
set tempo
stop
Author
Difficulty
artist: dasboard confessional
song  : stolen
tab   : elizer morcillos
email : vanz_191989@yahoo.com

i watch thier accostic video and it match my tab..


guitar tuning:
standard tuning:                         dashboard tuning:
string 1: e         tune it down to             d#
string 2: b         tune it down to             a#
string 3: g         tune it down to             f#
string 4: d         tune it down to             c#
string 5: a         tune it down to             g#
string 6: e         tune it down to             d#

intro :

d#------------------------------------------|
a#------------------------------------------|
f#----9------9------9------9----------------|
c#----9------9------9------9----------------| 2x
g#----7------0------x------0----------------|
d#----0------x------9------x----------------|


verse 1:

d#------------------------------------------|
a#------------------------------------------|
f#----9------9------9------9----------------|
c#----9------9------9------9----------------| 2x
g#----7------0------x------0----------------|
d#----0------x------9------x----------------|

you watch the season pull up its own stakes
and catch the last weekend of the last week
before the gold and the glamour have been replaced,
another sun soaked season fades away


chorus :

d#------------------------------------------|
a#------------------------------------------|
f#----9------9------9------9----------------|
c#----9------9------9------9----------------| 2x
g#----7------0------x------0----------------|
d#----0------x------9------x----------------|

you have stolen my heart
you have stolen my heart


verse 2:

d#------------------------------------------|
a#------------------------------------------|
f#----4-------------6------4----------------|
c#----4-------------6------2----------------| 2x
g#----2-------------4------0----------------|
d#----x-------------x------x----------------|

invitation only grant farewells
crush the best one, of the best ones
clear liquor and cloudy eyed, too early to say goodnight

chorus :

d#------------------------------------------|
a#------------------------------------------|
f#----9------9------9------9----------------|
c#----9------9------9------9----------------| 2x
g#----7------0------x------0----------------|
d#----0------x------9------x----------------|

you have stolen my heart
you have stolen my heart

verse 3:
and from the bar room.....       our dreams assure...
d#-----------------------------|--------------------------|
a#-----------------------------|--------------------------|
f#----1------6------2---4---9--|----1------6--------------|
c#----2------6------2---4---9--|----2------6------7-------|
g#----2------4------0---0---0--|----2------4------7-------|
d#----0------x------x---x---x--|----0------x------5-------|

and from the bar room floor we are a celebration
one good stretch before our hibernation
our dreams assured and we are, we'll sleep well


chorus :

d#------------------------------------------|
a#------------------------------------------|
f#----9------9------9------9----------------|
c#----9------9------9------9----------------| 4x
g#----7------0------x------0----------------|
d#----0------x------9------x----------------|

sleep well
sleep well
you have stolen
you have stolen
you have stolen my       heart

verse 4:

d#------------------------------------------|
a#------------------------------------------|
f#----9------9------9------9----------------|
c#----9------9------9------9----------------| 2x
g#----7------0------x------0----------------|
d#----0------x------9------x----------------|

i watch you spin around in the highest heels
you are the best one, of the best ones
we all look like we feel


chorus :

d#------------------------------------------|
a#------------------------------------------|
f#----9------9------9------9----------------|
c#----9------9------9------9----------------| 2x
g#----7------0------x------0----------------|
d#----0------x------9------x----------------|

you have stolen
you have stolen
you have stolen my       heart

end....

            
            
Suggest correction
Creating personal tab
Creating personal tab
You can edit any tab online and save it as your Personal.

You can edit, replace or remove any tab part or add personal notes – all changes will be seen only by you.

Personal tabs can be accessed anytime from any device, even offline.
Learn more »
comments
print report bad tab
guest
You may want to rate the tab now too:
select rating
Wanna post a correction for this tab? Suggest correction