Oops, an error
Loading. Please wait.

The Only Gift That I Need tab

version 1
version 1

Whole song

2,834 views 3 this week
1 commentread comment
1 2 3 4 5
x 4
add to favorites
×
Save as Personal and add changes to this tab that will be seen only by you. Learn more ›
×
You can save this tab as Personal to edit and correct it or add notes. All changes will be seen only by you. Learn more »
launch autoscroll
font size
0
reset
how to read this tab
guitar tuner
edit
Autoscroll
slow
fast
+/-
esc
set tempo
stop
Dashboard Confessional - The Only Gift That I Need
By:Andrew (Guitarguyx182@belg88.com

Intro/Verse
e|---------------------------------------------------------------------------|
B|---------------------------------------------------------------------------|
G|------8-8-5-5-6-6----------------------------------------------------------|
D|-6-6--8-8-5-5-6-6----------------------------------------------------------|
A|-6-6--6-6-3-3-4-4----------------------------------------------------------|
E|-4-4-----------------------------------------------------------------------|
Chorus
e|---------------------------------------------------------------------------|
B|---------------------------------------------------------------------------|
G|-----5-5-6-6-8-8-----------------------------------------------------------|
D|-6-6-5-5-6-6-8-8-----------------------------------------------------------|
A|-6-6-3-3-4-4-6-6-----------------------------------------------------------|
E|-4-4-----------------------------------------------------------------------|

You'll be leaving for the winter
But I look and see that it's true
It's the right thing for you
But it's tough to be moved with the holiday spirit
And to tell you the truth I have big plans for christmas
And high hopes for you

I want you here by my side
Cold nights and fires and white wine
And dreams of holidays to come
But I'll wait for spring to bring you to me
The only gift that I need 

I'll be living off you phone calls
in your letters and your postcards
Every single word is like a secret wish come true
Who cares if were apart for the big days
It's the small ones that made me fall in love with you

I want you here by my side
Cold night and fires and white wine
And dreams of holidays to come
But I'll wait til spring to bring u to me
The only gift that I need 

Only gift that I need 

Only gift that I need 

Only gift that I need

            
            
Suggest correction
Creating personal tab
Creating personal tab
You can edit any tab online and save it as your Personal.

You can edit, replace or remove any tab part or add personal notes – all changes will be seen only by you.

Personal tabs can be accessed anytime from any device, even offline.
Learn more »
comments
print report bad tab
1 comment total.
0 reply
Anthony06 10 Jan 13, 2004 07:00 PM

hey i think you should try this chord progression instead of that one friend. it sounds more like the song.. and remember its tuned a half step down.

e--------------------
B-------6-7----------
G---6-4-6-7----------
D---7-6-4-5----------
A--------------------
E--------------------

guest
You may want to rate the tab now too:
select rating
Wanna post a correction for this tab? Suggest correction