Oops, an error
Loading. Please wait.

This Bitter Pill Chords

version 1
version 1

Whole song

Interactive

27,106 views 18 this week
4 commentsread comments
1 2 3 4 5
x 10
add to favorites
launch autoscroll
font size
0
reset
transpose
0
reset
simplify chords
display chords
guitar tuner
×
Best way to learn
"This Bitter Pill"
Autoscroll
slow
fast
+/-
esc
set tempo
stop
[Chords Used]
e|-x--x---x--x-----x--3---3------0---2--3--2--0--0------------|
B|-0--1---1--3-----3--3---3------0---1--1--3--3--3------------|
G|-0--0---0--0-----2--0---2------0---2--0--2--2--0------------|
D|-0--0---2--4-----4--0---0------9---0--2--0--0--2------------|
A|-x--x---3--5-----0--2---0------7---0--0--0--0--2------------|
E|-3--3---x--x-----x--3---2------x---x--x--x--x--0------------|
G6 Gsus C  Dsus2 D6 G  Dsus/F# Em D7 Am7 D D2 Em7

[Riff 1]
e|-----------------------|
B|---0h1p0-0-1-----------|
G|---0---0-0-0-----------|
D|---0---0-0-2-----------|
A|-----------3-----------|
E|-3---------------------|

  C      Dsus2
Walking away.
               G6
It's not the same as running.
D6      Gsus   C              Dsus2       G6   D6 Riff 1
Is it to you know that you've run in this ground.
C              Dsus2
And you say take this.
       G6         D6     Gsus   C
This medicine is just what you deserve.
D6                    G6
Swallow, choke, and die.

[Chorus]
           G
And this bitter pill is leaving you
       Dsus/F#
with such an angry mouth.
            Em
One that's void of all discretion
         D7
such an awful tearing sound.
           G                        Dsus/F#
With it's measure only equal by the power of my stare
        Am7                          D7
glaring over you and over you this feeling of despair
       Am7       D7          G? G6

[Riff 1]
e|-----------------------|
B|---0h1p0-0-1-----------|
G|---0---0-0-0-----------|
D|---0---0-0-2-----------|
A|-----------3-----------|
E|-3---------------------|

is never wearing out.

C             Dsus2
It's wearing off
           G6           D6       Gsus    C
and it's leaving you with such a heavy heart
      Dsus2   G6  D6

[Riff 1]
e|-----------------------|
B|---0h1p0-0-1-----------|
G|---0---0-0-0-----------|
D|---0---0-0-2-----------|
A|-----------3-----------|
E|-3---------------------|

and a head to match.
C              Dsus2
The bottle is waiting
     G              D6      Gsus   C
the cap is twisted begging to be used
    Dsus2     G6
and so are you.  

[End part]
e|---0--0--0-----0--0--0-----0-----2-----0----|
B|---3--3--3-----0--0--0-----0-----3-----2----|
G|---0--0--0-----0--0--0-----0-----2-----3----|
D|---5--4--5-----9--9--9-----7-----0-----0----|
A|---5--5--5----10--9-10-----5-----0-----0----|
E|---------------0--0--0----------------------|
Suggest correction
comments
print report bad tab
4 comments total. Showing first comments.
0 reply
mollygreen 10 Nov 11, 2008 09:03 PM

yay!
:)

0 reply
EJ2071 10 Nov 04, 2011 05:33 PM

Is this in standard tuning?

guest
You may want to rate the tab now too:
select rating
Wanna post a correction for this tab? Suggest correction