Oops, an error
Loading. Please wait.

This Ruined Puzzle tab

version 3
version 3

Whole song

Interactive

4,586 views 6 this week
8 commentsread comments
1 2 3 4 5
x 5
add to favorites
×
Save as Personal and add changes to this tab that will be seen only by you. Learn more ›
×
You can save this tab as Personal to edit and correct it or add notes. All changes will be seen only by you. Learn more »
launch autoscroll
font size
0
reset
how to read this tab
guitar tuner
edit
Autoscroll
slow
fast
+/-
esc
set tempo
stop
Author
Difficulty
Tabbed By: Ryan S. Gfacepinoy@aol.com
Tuning: drop guitar 1/2 step to Eb Ab Db Gb Bb Eb       ( By geetarer5)

Strumming: down down up up down down up down up down
	   |--D--D-U--U-D--D-U-D-U--|
	   or just listen to song to figure it out

Verse:

  "This Ruined Puzzle is beige with the pieces all face down" 
e|--0--------------------0-------------------------0-------------------0-----|
b|--0--------------------0-------------------------0-------------------0-----|
g|--0--------------------0-------------------------0-------------------0-----|
D|--2--------------------0-------------------------2-------------------0-----|
A|--3--------------------2-------------------------3-------------------3-----|
E|---------------------------------------------------------------------------|


"So the placing goes slowly the pictures of an...y...thing 
e|------0--------------------------------------------------------------------|
b|------0-----------------------------------0--------------------------------|
g|------0----------------------------0---2-------2---0-----------------------|
D|------2-----------------------1--------------------------------------------|
A|------3--------------------------------------------------------------------|
E|---------------------------------------------------------------------------|


   "other than it's meant to be"
e|--8------------------------8-----------------------------------------------|
b|--8------------------------8-----------------------------------------------|
g|--0------------------------0-----------------------------------------------|
D|--0------------------------0-----------------------------------------------|
A|--x------------------------x-----------------------------------------------|
E|--8------------------------8-----------------------------------------------|


"the hours they creep, the patterns repeat, don't be concerned"
e|--10---------------------12---------------10-------------------------------|
b|--10---------------------12---------------10-------------------------------|
g|---0---------------------0-----------------0-------------------------------|
D|---9--------------------*10----------------9-------------------------------|
A|--10--------------------*10----------------x-------------------------------|
E|-----------------------------------------(10)------------------------------|
                          *use first finger to barre

"you know ill be fine on my own........... I never said      "dont go"
e|---8----------------------7-----------------5---------------3--------------|
b|---8----------------------7-----------------5---------------3--------------|
g|---0----------------------0-----------------0---------------0--------------|
D|---7---------------------*5-----------------0---------------2--------------|
A|---8---------------------*5-----------------5---------------3--------------|
E|---------------------------------------------------------------------------|
                          *use first finger to barre
   "(dont go)"
e|---3-----------------------------------------------------------------------|
b|---3-----------------------------------------------------------------------|
g|---0-----------------------------------------------------------------------|
D|---2-----------------------------------------------------------------------|
A|---3-----------------------------------------------------------------------|
E|---------------------------------------------------------------------------|

Chorus:

But i've hidden a note it's  pressed between pages that You've marked to find
e|-------3-------------------8--------------------------3--------------------|
b|-------3-------------------8--------------------------3--------------------|
g|-------0-------------------0--------------------------0--------------------|
D|-------0-------------------7--------------------------2--------------------|
A|-------2-------------------8--------------------------3--------------------|
E|-------3-------------------------------------------------------------------|

your way back.  It says, "Does he...... ever get the.... girl?" But what if
e|-------3----------------3-------------3----------------3-------------------|
b|-------3----------------3-------------3----------------3-------------------|
g|-------0----------------0-------------0----------------0-------------------|
D|-------2----------------0-------------0----------------2-------------------|
A|-------3----------------2-------------0----------------3-------------------|
E|------------------------3-------------2------------------------------------|

the pages stay pressed the chapters unfinished the stories too
e|--0----------------------8-----------------------3-------------------------|
b|--3----------------------8-----------------------3-------------------------|
g|--0----------------------0-----------------------0-------------------------|
D|--0----------------------7-----------------------2-------------------------|
A|--2----------------------8-----------------------3-------------------------|
E|--3------------------------------------------------------------------------|


 dull to unfold It says, "Does he...... ever get the.... girl?" 
e|-------3----------------3-------------3----------------3-------------------|
b|-------3----------------3-------------3----------------3-------------------|
g|-------0----------------0-------------0----------------0-------------------|
D|-------2----------------0-------------0----------------2-------------------|
A|-------3----------------2-------------0----------------3-------------------|
E|------------------------3-------------2------------------------------------|

Verse 2:
use same chords from verse 1:

Well this basement's a coffin 
I'm buried alive. 
I'll die in here just to be safe. 
I'll die in here just to be safe. 
Cause you're gone
i get nothing

then:                        
and you're off with barely a sigh
e|---------------------------------------------------------------------------|
b|------------15-----------15----------13---------13-------------------------|
g|--------0------------0------------0----------0-----------------------------|
D|---13------------13----------13----------13--------------------------------|
A|---------------------------------------------------------------------------|
E|---------------------------------------------------------------------------|

               i never said goodbye            
e|---7-----------5--------------3---------------3----------------------------|
b|---7-----------5--------------3---------------3----------------------------|
g|---0-----------0--------------0---------------0----------------------------|
D|--*5-----------0--------------2---------------2----------------------------|
A|--*5-----------5--------------3---------------3----------------------------|
E|---------------------------------------------------------------------------|

Then chorus repeats once:

But i've hidden a note 
it's pressed between pages 
that You've marked to find your way back. 
It says, "Does he ever get the girl?"
But i've hidden a note 
it's pressed between pages
That you'll read if your so inclined
"Does he ever get the girl"

Ending:

the hours they creep, the  patterns repeat,
e|--10---------------------12------------------------------------------------|
b|--10---------------------12------------------------------------------------|
g|---0---------------------0-------------------------------------------------|
D|---9--------------------*10------------------------------------------------|
A|--10--------------------*10------------------------------------------------|
E|---------------------------------------------------------------------------|

     dont be concerned you know i'll be fine on my
e|---------------------------------------------------------------------------|
b|------------15-----------15----------13---------13-------------------------|
g|--------0------------0------------0----------0-----------------------------|
D|---13------------13----------13----------13--------------------------------|
A|---------------------------------------------------------------------------|
E|---------------------------------------------------------------------------|

     own...                    i never      said    "dont      
e|---------------------------------------------------------------------------|
b|------------12------------12----------10----------10-----------------------|
g|--------0-------------0------------0-----------0---------------------------|
D|---12------------12-----------11----------11-------------------------------|
A|---------------------------------------------------------------------------|
E|---------------------------------------------------------------------------|

     go"                    (dont go)
e|-----------10-----------10--------------10------------10-------------------|
b|---------------------------------------------------------------------------|
g|--------0-----------0---------------0-------------0------------------------|
D|---10----------10--------------10------------10----------------------------|
A|---------------------------------------------------------------------------|
E|---------------------------------------------------------------------------|

(lightly pick)
e|--10---------------------12------------------------------------------------|
b|--10---------------------12------------------------------------------------|
g|---0---------------------0-------------------------------------------------|
D|---9--------------------*10------------------------------------------------|
A|--10--------------------*10------------------------------------------------|
E|---------------------------------------------------------------------------|


e|---------------------------------------------------------------------------|
b|------------15-----------15----------13---------13-------------------------|
g|--------0------------0------------0----------0-----------------------------|
D|---13------------13----------13----------13--------------------------------|
A|---------------------------------------------------------------------------|
E|---------------------------------------------------------------------------|


     "does    he                ever        get      the
e|---------------------------------------------------------------------------|
b|------------12------------12-----------9-----------9-----------------------|
g|--------0-------------0------------0-----------0---------------------------|
D|---12------------12-----------11----------11-------------------------------|
A|---------------------------------------------------------------------------|
E|---------------------------------------------------------------------------|

     girl?"
e|-----------10-----------10--------------10------------10-------------------|
b|---------------------------------------------------------------------------|
g|--------0-----------0---------------0-------------0------------------------|
D|---10----------10--------------10------------10----------------------------|
A|---------------------------------------------------------------------------|
E|---------------------------------------------------------------------------|


e|-----------10-----------10--------------10------------10-------------------|
b|---------------------------------------------------------------------------|
g|--------0-----------0---------------0-------------0------------------------|
D|---9-----------9---------------9-------------9-----------------------------|
A|---------------------------------------------------------------------------|
E|---------------------------------------------------------------------------|

e|-----------10-----------10-------------------------------------------------|
b|---------------------------------------------------------------------------|
g|--------0-----------0---------0--Let Ring----------------------------------|
D|---9-----------9-----------------------------------------------------------|
A|---------------------------------------------------------------------------|
E|---------------------------------------------------------------------------|

            
            
Suggest correction
Creating personal tab
Creating personal tab
You can edit any tab online and save it as your Personal.

You can edit, replace or remove any tab part or add personal notes – all changes will be seen only by you.

Personal tabs can be accessed anytime from any device, even offline.
Learn more »
comments
print report bad tab
8 comments total. Showing first comments.
0 reply
XxDontxWaitXx 51 Nov 21, 2006 11:21 AM

"does he ever get the

b|------------12------------12-----------9-----------9----------------
g|--------0-------------0------------0-----------0--------------------
D|---12------------12-----------11----------11------------------------
A|--------------------------------------------------------------------
_____________________

?

0 reply
XxDontxWaitXx 51 Nov 21, 2006 11:23 AM

nvm that. hang on
"does he ever
-----------9-----------9----------------
-------0-----------0--------------------
---11----------11-----------------------
there we go. that sounds really weird. ill listen to the song. but so far, i really like your tab. good job.

0 reply
XxDontxWaitXx 51 Nov 21, 2006 11:28 AM

"you know ill be fine on my own........... I never said "dont go"
e|---8----------------------7-----------------5---------------3-------
b|---8----------------------7-----------------5---------------3-------
g|---0----------------------0-----------------0---------------0------
D|---7---------------------*5-----------------0---------------2-------
A|---8---------------------*5-----------------5---------------3-------

the 770*5*5 part...sounds weird too. help?

guest
You may want to rate the tab now too:
select rating
Wanna post a correction for this tab? Suggest correction