Oops, an error
Loading. Please wait.

Vindicated bass

version 1
version 1

Whole song

7,050 views 12 this week
2 commentsread comments
1 2 3 4 5
x 3
add to favorites
×
Save as Personal and add changes to this tab that will be seen only by you. Learn more ›
×
You can save this tab as Personal to edit and correct it or add notes. All changes will be seen only by you. Learn more »
launch autoscroll
font size
0
reset
guitar tuner
edit
Autoscroll
slow
fast
+/-
esc
set tempo
stop
Author
-------------------------------------------------------------------------------
			     Dashboard Confessional - Vindicated
-------------------------------------------------------------------------------

Tabbed By : MiltownBass

This song is fun and easy to play once you get used to it.
Please rate!

Tuning: 1/2 Step Down

Intro
  (0:05)
Gb|---------------------------------------------------------------------------|
Db|---------------------------------------------------------------------------|
Ab|-7-7-7-7-7-7-7---4-4-4-4-4-4-4---------------------------------------------|
Eb|---------------4----------------4-7-7-7-7-7-7-7-9-5-5-5-5-5-5-5-3-0-0------|

Gb|---------------------------------------------------------------------------|
Db|---------------------------------------------------------------------------|
Ab|-7-7-7-7-7---4-4-4-4-4-4-4-------------------------------------------------|
Eb|-----------4---------------4-7-7-7-7-7-7-7-9-5-5-5-5-5-5-5-3---------------|

Verse
  (0:27)
Gb|---------------------------------------------------------------------------|
Db|---------------------------------------------------------------------------|
Ab|-----------------4-4-4-4-4-4-4---------------------------------------------|
Eb|-0-0-0-0-0-0-0-4---------------4-7-7-7-7-7-7-7-4-5-5-5-5-5-5-5-5-----------|

Gb|---------------------------------------------------------------------------|
Db|---------------------------------------------------------------------------|
Ab|-----------------4-4-4-4-4-4-4---------------------------------------------|
Eb|-0-0-0-0-0-0-0-4---------------4-7-7-7-7-7-7-7-7-7-7-7-7-7-7-7-7-----------|

Chorus
  (0:50)
Gb|---------------------------------------------------------------------------|
Db|---------------------------------------------------------------------------|
Ab|------7-7-----------------4-4-4-4-4---2-2-2-2-2-2-7-7-7-7-7-7--------------|
Eb|-0--0-----0-3-5-5-5-3-5-7-----------4--------------------------------------|

Gb|---------------------------------------------------------------------------|
Db|---------------------------------------------------------------------------|
Ab|-------------4-4-4-4-4---2-2-2-2-2-2---------------------------------------|
Eb|-5-5-5-3-5-7-----------4---------------------------------------------------|

Verse (1:11) End on A-7
Chorus (1:34) Keep hitting A-2 till bridge

Bridge
  (1:59)
Gb|---------------------------------------------------------------------------|
Db|---------------------------------------------------------------------------|
Ab|--------------4--4--4--4---2-2-2-2-----------------------------------------|
Eb|-5--5--5--5-7------------4---------4-5-5-5-5-7-5--5--5--5-7----------------|

Gb|---------------------------------------------------------------------------|
Db|---------------------------------------------------------------------------|
Ab|-4--4--4--4---2-2-2-2-2-2-2------------------------------------------------|
Eb|------------4--------------------------------------------------------------|


Gb|---------------------------------------------------------------------------|
Db|---------------------------------------------------------------------------|
Ab|-7-7-7-7-7-7-7---4-4-4-4-4-4-4---------------------------------------------|
Eb|---------------4---------------4-7-7-7-7-7-7-7-9-5-5-5-5-5-5-5-3-0-0-------|

Gb|---------------------------------------------------------------------------|
Db|---------------------------------------------------------------------------|
Ab|-7-7-7-7-7---4-4-4-4-4-4-4-------------------------5/1212121212121212\-----|
Eb|-----------4---------------4-7-7-7-7-7-7-7-9-5-5-5-------------------------|

Chorus (2:44) End on A-7




| /  slide up
| \  slide down
===============================================================================
Suggest correction
Creating personal tab
Creating personal tab
You can edit any tab online and save it as your Personal.

You can edit, replace or remove any tab part or add personal notes – all changes will be seen only by you.

Personal tabs can be accessed anytime from any device, even offline.
Learn more »
Give kudos to tab author, rate the tab!
1 2 3 4 5
comments
print report bad tab
2 comments total.
0 reply
x34 10 Jan 14, 2007 08:55 AM

hard to understand

0 reply
under_score_69 10 Mar 27, 2007 06:39 PM

It’s pretty good. Although I think the chorus and the beginning of the bridge are just a little out. This works better for me


Chorus
(0:50)
Gb|----------------------------------------------------------------------------|
Db|----------------------------------------------------------------------------|
Ab|-----7-7---------------------4-4-4-4-4-4-4---2-2-2-2-2-2-2-2-7-7-7-7-7-7-7-7|
Eb|0--0-----0-3-5-5-5-5-5-3-5-7---------------4--------------------------------|

Gb|----------------------------------------------------------------------------|
Db|----------------------------------------------------------------------------|
Ab|-----------------4-4-4-4-4-4-4---2-2-2-2-2-2-2-2----------------------------|
Eb|-5-5-5-5-5-3-5-7---------------4--------------------------------------------|

Bridge
Part 1 x2

Gb|----------------------------------------------------------------------------|
Db|----------------------------------------------------------------------------|
Ab|----------------------------------------------------------------------------|
Eb|5---5---55--5-7-9---9---99--9-5-7---7---77--7---(5---5---5---55--5-7-)------|
(Don’t play the bit in brackets the second time, instead play: Eb|7-7-----|)


Part 2 (as you had it)

Gb|----------------------------------------------------------------------------|
Db|----------------------------------------------------------------------------|
Ab|-7-7-7-7-7-7-7---4-4-4-4-4-4-4----------------------------------------------|
Eb|---------------4---------------4-7-7-7-7-7-7-7-9-5-5-5-5-5-5-5-3-0-0--------|

Gb|----------------------------------------------------------------------------|
Db|----------------------------------------------------------------------------|
Ab|-7-7-7-7-7---4-4-4-4-4-4-4-------------------------5/1212121212121212\------|
Eb|-----------4---------------4-7-7-7-7-7-7-7-9-5-5-5--------------------------|

guest
You may want to rate the tab now too:
select rating
Wanna post a correction for this tab? Suggest correction