Oops, an error
Loading. Please wait.

Where Theres Gold tab

version 1
version 1

Whole song

Interactive

8,282 views 3 this week
3 commentsread comments
1 2 3 4 5
x 5
add to favorites
×
Save as Personal and add changes to this tab that will be seen only by you. Learn more ›
×
You can save this tab as Personal to edit and correct it or add notes. All changes will be seen only by you. Learn more »
launch autoscroll
font size
0
reset
how to read this tab
guitar tuner
edit
Autoscroll
slow
fast
+/-
esc
set tempo
stop
Author
Tabbers playing skills
advanced +
tuning- (satndard w/ capoon the 3rd fret)

Intro-
Guitar
|-------33-x-33-x--33-x-33-----33-x-33-x--33-x-33--------|
|-------33-x-33-x--33-x-33-----33-x-33-x--33-x-33--------|
|-----0-00-x-00-x--00-x-00-----00-x-00-x--00-x-00--------|
|-----0-00-x-00-x--00-x-00-----22-x-22-x--22-x-22--------|
|-----2-22-x-22-x--22-x-22-----33-x-33-x--33-x-33--------|
|-----3-33-x-33-x--33-x-33-------------------------------|


|-------33-x-33-x--33-x-33-----33-x-33-x--33-x-33--------|
|-------33-x-33-x--33-x-33-----33-x-33-x--33-x-33--------|
|-------00-x-00-x--00-x-00-----22-x-22-x--22-x-22--------|
|-------00-x-00-x--00-x-00-----22-x-22-x--22-x-22--------|
|-------22-x-22-x--22-x-22-----00-x-00-x--00-x-00--------|
|-------00-x-00-x--00-x-00-------------------------------|
Verse1-
Step on the stage....
Guitar
|-------33-x-33-x--33-x-33-----33-x-33-x--33-x-33--------|
|-------33-x-33-x--33-x-33-----33-x-33-x--33-x-33--------|
|-----0-00-x-00-x--00-x-00-----00-x-00-x--00-x-00--------|
|-----0-00-x-00-x--00-x-00-----22-x-22-x--22-x-22--------|
|-----2-22-x-22-x--22-x-22-----33-x-33-x--33-x-33--------|
|-----3-33-x-33-x--33-x-33-------------------------------|


|-------33-x-33-x--33-x-33-----33-x-33-x--33-x-33--------|
|-------33-x-33-x--33-x-33-----33-x-33-x--33-x-33--------|
|-------00-x-00-x--00-x-00-----22-x-22-x--22-x-22--------|
|-------00-x-00-x--00-x-00-----22-x-22-x--22-x-22--------|
|-------22-x-22-x--22-x-22-----00-x-00-x--00-x-00--------|
|-------00-x-00-x--00-x-00-------------------------------|

Verse2-
The promise the pain..
Guitar
|-------33-x-33-x--33-x-33-----33-x-33-x--33-x-33--------|
|-------33-x-33-x--33-x-33-----33-x-33-x--33-x-33--------|
|-----0-00-x-00-x--00-x-00-----00-x-00-x--00-x-00--------|
|-----0-00-x-00-x--00-x-00-----22-x-22-x--22-x-22--------|
|-----2-22-x-22-x--22-x-22-----33-x-33-x--33-x-33--------|
|-----3-33-x-33-x--33-x-33-------------------------------|


|-------33-x-33-x--33-x-33-----33-x-33-x--33-x-33--------|
|-------33-x-33-x--33-x-33-----33-x-33-x--33-x-33--------|
|-------00-x-00-x--00-x-00-----22-x-22-x--22-x-22--------|
|-------00-x-00-x--00-x-00-----22-x-22-x--22-x-22--------|
|-------22-x-22-x--22-x-22-----00-x-00-x--00-x-00--------|
|-------00-x-00-x--00-x-00-------------------------------|

Refrain-
You throw yourself
Guitar
|-3-3-33--3-3-33--3-3-33--3-3-33---3-3-33--3-3-33---3~-----|
|-3-3-33--3-3-33--3-3-33--3-3-33---3-3-33--3-3-33---3~-----|
|-0-0-00--2-2-22--0-0-00--0-0-00---0-0-00--2-2-22---0~-----|
|-0-0-00--0-0-00--0-0-00--2-2-22---0-0-00--0-0-00---0~-----|
|-2-2-22--0-0-00--2-2-22--3-3-33---2-2-22--0-0-00---2~-----|
|-0-0-00--2-2-22--3-3-33-----------0-0-00--2-2-22---3~-----|

Verse3-do verse


Verse4-do verse


Refrain2-
But movies never made you famous
Guitar
|-3-3-33--3-3-33--3-3-33--3-3-33---3-3-33--3-3-33---333~-----|
|-3-3-33--3-3-33--3-3-33--3-3-33---3-3-33--3-3-33---333~-----|
|-0-0-00--2-2-22--0-0-00--0-0-00---0-0-00--2-2-22---000~-----|
|-0-0-00--0-0-00--0-0-00--2-2-22---0-0-00--0-0-00---000~-----|
|-2-2-22--0-0-00--2-2-22--3-3-33---2-2-22--0-0-00---222~-----|
|-0-0-00--2-2-22--3-3-33-----------0-0-00--2-2-22---333~-----|

Guitar2
|------------------------------------------------------7---10-|
|-------------------------------------------------7h8---8-----|
|-------------------------------------------------------------|
|-------------------------------------------------------------|
|-------------------------------------------------------------|
|-------------------------------------------------------------|

ref-Guitar
|-3-3-33--3-3-33--3-3-33--3-3-33---3-3-33--3-3-33---3~-----|
|-3-3-33--3-3-33--3-3-33--3-3-33---3-3-33--3-3-33---3~-----|
|-0-0-00--2-2-22--0-0-00--0-0-00---0-0-00--2-2-22---0~-----|
|-0-0-00--0-0-00--0-0-00--2-2-22---0-0-00--0-0-00---0~-----|
|-2-2-22--0-0-00--2-2-22--3-3-33---2-2-22--0-0-00---2~-----|
|-0-0-00--2-2-22--3-3-33-----------0-0-00--2-2-22---3~-----|


Chorus-

Where there's gold, there's a gold digger

Guitar-d0 verse


Outro-You throw yourself 
Guitar
|-3-3-33--3-3-33--3-3-33--3-3-33---3-3-33--3-3-33---3~-----|
|-3-3-33--3-3-33--3-3-33--3-3-33---3-3-33--3-3-33---3~-----|
|-0-0-00--2-2-22--0-0-00--0-0-00---0-0-00--2-2-22---0~-----|
|-0-0-00--0-0-00--0-0-00--2-2-22---0-0-00--0-0-00---0~-----|
|-2-2-22--0-0-00--2-2-22--3-3-33---2-2-22--0-0-00---2~-----|
|-0-0-00--2-2-22--3-3-33-----------0-0-00--2-2-22---3~-----|

Lyrics-
Step on the stage
The lights the praise
The curtain calls
And the big parade
You know that life all too well

The promise the pain
The valor the rage
Hold up your hands
For the bow and the wave 
You know this touch
A little too well

You throw yourself
Into their arms
Mistress have all the fun
But no one's ever there to take you home

Box up your gloves and your 
Down coats
Bound for the sun and the 
West Coast
Where upper crust tragedies abound



A tip for the girl at the
Coat check
The guy at the door and the
Bar back
They know your face 
Oh so well

But movies never made you famous
All your dreams got lost or traded
An all you ever cared about got lost

But you were surely still an actress 
Older men would find attractive
And all you ever cared about got lost

Where there's gold, there's a gold digger

You throw yourself 
Into their arms
Mistresses have all the fun
But no one's ever there to take you home. 

            
            
Suggest correction
Creating personal tab
Creating personal tab
You can edit any tab online and save it as your Personal.

You can edit, replace or remove any tab part or add personal notes – all changes will be seen only by you.

Personal tabs can be accessed anytime from any device, even offline.
Learn more »
comments
print report bad tab
3 comments total.
0 reply
funken 10 Nov 08, 2007 12:45 AM

sweet tab,love it

0 reply
baguettefrenzy 10 Feb 04, 2008 07:52 PM

Great tab.. nailed the chords! I watched a video of him playing this live though and noticed that he put the capo on the 2nd fret. Tried that out and it still sounded a bit off so I tried it with a 1/2 step down and that did the trick. So yeah, try tuning the guitar a 1/2 step down with capo on 2nd.

0 reply
xConverge 30 May 19, 2008 07:29 AM

wrong wrong wrong, also,
@baquette, this makes no sense, just tune to standard and have it first fret,
he only plays like this so when hes playing live he can just take the capo off and play everything else....

the other version with the chords is closer...

guest
You may want to rate the tab now too:
select rating
Wanna post a correction for this tab? Suggest correction