Oops, an error
Loading. Please wait.

Amarillion Tab

version 1
version 1

Whole song

Interactive

2,516 views 1 this week
no commentswrite comment
1 2 3 4 5
x 4
add to favorites
launch autoscroll
font size
0
reset
how to read this tab
guitar tuner
Autoscroll
slow
fast
+/-
esc
set tempo
stop
Help us to improve Ultimate-Guitar.com Take our survey!
×
Author
Difficulty
novice
Ok. I'm 15 years old and not very talented at this -> and this is my first tab. Sorry 
any mistakes. I decided to make this tab since i couldn't find any other of it, and i saw 
people asking for it. So here it is!

R- Let note ring
x- Dead note
s- slide

Intro:
First theres a little drumming and then the guitar comes in:

--------------------------------------------------------------|
--------------------------------------------------------------|
13-13-13r---------11-11-11r--------16-16-16r----14r--13---13--|r
11-11-11r---------9--9--9r---------14-14-14r----12r--11---11--|r
--------------------------------------------------------------|
--------------------------------------------------------------|

----------------------------------------|
----------------------------------------|
11-11-11r--------16-16-16r----14r--13xx-|
9--9--9r---------14-14-14r----12r--11xx-|
----------------------------------------|
----------------------------------------|

---------------------------------------|
---------------------------------------|
13xx13xx13xx13xx11xx11xx16r--14r--13xx-|
11xx11xx11xx11xx9-xx9-xx14r--12r--11xx-|
---------------------------------------|
---------------------------------------|

---------------------------|
---------------------------|
13xx13xx13xx13xx11xx11-16r-|
11xx11xx11xx11xx9-xx9--14--|r
---------------------------|
---------------------------|

TINY PAUSE

--------------------------------|
--------------------------------|
14--13------14-14-14-13---------|
--------14---------------14 x 4-|
--------------------------------|   (This is only played this one time in the song)
--------------------------------|


Verse

1 ----------------------------------|
  ----------------------------------|
  ----------------------------------|
  ----------------------------------|
  ---12--11-----12-12-12-11---------|
  0----------0---------------12s----| (Slide just a little bit up the neck)


2 ----------------------------------|
  ----------------------------------|
  ----------------------------------|
  ----------------------------------| x 4
  0--12--11--0--12-12-12-11---------|
  ---------------------------12s----|


(Change between the two above!)
They are numbered as 1 and 2 and is played like this:
1-2-1-2-1-2-1-2.

------------------------------------------------------|
------------------------------------------------------|
13--11r--13-13-13--11--7r---13--11r--13-13-13--11--13-|
11--9-r--11-11-11--9---9r---11--9-r--11-11-11--9---11-|
------------------------------------------------------|
------------------------------------------------------|

----------------------------------------|
----------------------------------------|
13--11r--13-13-13--11--7---13--11r--16--|r
11--9-r--11-11-11--9---9---11--9-r--14--|r
----------------------------------------|
----------------------------------------|

Verse

1 ----------------------------------|
  ----------------------------------|
  ----------------------------------|
  ----------------------------------|
  ---12--11-----12-12-12-11---------|
  0----------0---------------12s----| (Slide just a little bit up the neck)


2 ----------------------------------|
  ----------------------------------|
  ----------------------------------|
  ----------------------------------| x 4
  0--12--11--0--12-12-12-11---------|
  ---------------------------12s----|

------------------------------------------------------|
------------------------------------------------------|
13--11r--13-13-13--11--7r---13--11r--13-13-13--11--13-|
11--9-r--11-11-11--9---9r---11--9-r--11-11-11--9---11-|
------------------------------------------------------|
------------------------------------------------------|

------------------------------------------------------|
------------------------------------------------------|
13--11r--13-13-13--11--7r---13--11r--13-13-13--11--13-|
11--9-r--11-11-11--9---9r---11--9-r--11-11-11--9---11-|
------------------------------------------------------|
------------------------------------------------------|

------------------------------------------------------|
------------------------------------------------------|
13--11r--13-13-13--11--7r---13--11r--13-13-13--11--13-|
11--9-r--11-11-11--9---9r---11--9-r--11-11-11--9---11-|
------------------------------------------------------|
------------------------------------------------------|

----------------------------------------|
----------------------------------------|
13--11r--13-13-13--11--7---13--11r--16--|r
11--9-r--11-11-11--9---9---11--9-r--14--|r
----------------------------------------|
----------------------------------------|

------------------------------------------------------|
------------------------------------------------------|
13--11r--13-13-13--11--7r---13--11r--13-13-13--11--13-|
11--9-r--11-11-11--9---9r---11--9-r--11-11-11--9---11-|
------------------------------------------------------|
------------------------------------------------------|

-------------------------------------|
-------------------------------------|
13--11r--13-13-13--11--7---13--11-11-|
11--9-r--11-11-11--9---9---11--9--9--|
-------------------------------------|
-------------------------------------|

--------------------------------------------------------------|
--------------------------------------------------------------|
13-13-13r---------11-11-11r--------16-16-16r----14r--13---13--|r
11-11-11r---------9--9--9r---------14-14-14r----12r--11---11--|r
--------------------------------------------------------------|
--------------------------------------------------------------|

----------------------------------------|
----------------------------------------|
11-11-11r--------16-16-16r----14r--13xx-|
9--9--9r---------14-14-14r----12r--11xx-|
----------------------------------------|
----------------------------------------|


---------------------------------------|
---------------------------------------|
13xx13xx13xx13xx11xx11xx16r--14r--13xx-|
11xx11xx11xx11xx9-xx9-xx14r--12r--11xx-|
---------------------------------------|
---------------------------------------|

---------------------------|
---------------------------|
13xx13xx13xx13xx11xx11-16r-|
11xx11xx11xx11xx9-xx9--14--|r
---------------------------|
---------------------------|

Verse

1 ----------------------------------|
  ----------------------------------|
  ----------------------------------|
  ----------------------------------|
  ---12--11-----12-12-12-11---------|
  0----------0---------------12s----| (Slide just a little bit up the neck)


2 ----------------------------------|
  ----------------------------------|
  ----------------------------------|
  ----------------------------------| x 4
  0--12--11--0--12-12-12-11---------|
  ---------------------------12s----|
...
------------------------------------------------------|
------------------------------------------------------|
13--11r--13-13-13--11--7r---13--11r--13-13-13--11--13-|
11--9-r--11-11-11--9---9r---11--9-r--11-11-11--9---11-|
------------------------------------------------------|
------------------------------------------------------|

------------------------------------------------------|
------------------------------------------------------|
13--11r--13-13-13--11--7r---13--11r--13-13-13--11--13-|
11--9-r--11-11-11--9---9r---11--9-r--11-11-11--9---11-|
------------------------------------------------------|
------------------------------------------------------|

------------------------------------------------------|
------------------------------------------------------|
13--11r--13-13-13--11--7r---13--11r--13-13-13--11--13-|
11--9-r--11-11-11--9---9r---11--9-r--11-11-11--9---11-|
------------------------------------------------------|
------------------------------------------------------|

----------------------------------------|
----------------------------------------|
13--11r--13-13-13--11--7---13--11r--16--|r
11--9-r--11-11-11--9---9---11--9-r--14--|r
----------------------------------------|
----------------------------------------|

------------------------------------------------------|
------------------------------------------------------|
13--11r--13-13-13--11--7r---13--11r--13-13-13--11--13-|
11--9-r--11-11-11--9---9r---11--9-r--11-11-11--9---11-|
------------------------------------------------------|
------------------------------------------------------|

-------------------------------------|
-------------------------------------|
13--11r--13-13-13--11--7---13--11-11-|
11--9-r--11-11-11--9---9---11--9--9--|
-------------------------------------|
-------------------------------------|


One extra time here (Take me out...)
------------------------------------------------------|
------------------------------------------------------|
13--11r--13-13-13--11--7r---13--11r--13-13-13--11--13-|
11--9-r--11-11-11--9---9r---11--9-r--11-11-11--9---11-|
------------------------------------------------------|
------------------------------------------------------|

-------------------------------------|
-------------------------------------|
13--11r--13-13-13--11--7---13--11-11-|
11--9-r--11-11-11--9---9---11--9--9--|
-------------------------------------|
-------------------------------------|

OUTRO:

--------------------------------------------------------------|
--------------------------------------------------------------|
13-13-13r---------11-11-11r--------16-16-16r----14r--13---13--|r
11-11-11r---------9--9--9r---------14-14-14r----12r--11---11--|r
--------------------------------------------------------------|
--------------------------------------------------------------|

-------------------------------------------|
-------------------------------------------|
11-11-11r--------16-16-16r----14r--13--13--|r
9--9--9r---------14-14-14r----12r--11--11--|r
-------------------------------------------|
-------------------------------------------|

--------------------------------------------------------------|
--------------------------------------------------------------|
13-13-13r---------11-11-11r--------16-16-16r----14r--13---13--|r
11-11-11r---------9--9--9r---------14-14-14r----12r--11---11--|r
--------------------------------------------------------------|
--------------------------------------------------------------|

---------------------------|
---------------------------|
11-11-11r--------16-16-16--|r
9--9--9r---------14-14-14--|r
---------------------------|
---------------------------|
Suggest correction
comments
print report bad tab
guest
You may want to rate the tab now too:
select rating
Wanna post a correction for this tab? Suggest correction