Oops, an error
Loading. Please wait.

Fa-Fa-Fa Bass Tab

version 2
version 2

Whole song

Interactive

1,271 views 6 this week
no commentswrite comment
1 2 3 4 5
please rate
add to favorites
launch autoscroll
font size
0
reset
guitar tuner
Autoscroll
slow
fast
+/-
esc
set tempo
stop
Help us to improve Ultimate-Guitar.com Take our survey!
×
Author
Difficulty
intermediate
-------------------------------------------------------------------------------
			     Fa-Fa-Fa ~~ Datarock
-------------------------------------------------------------------------------

Song:	Fa-Fa-Fa
Artist:	Datarock
Album:	Datarock Datarock (2005)

Tabbed By : Ryan Smalley
e-mail: rsmalley2009 at Gmail .com

Tuning: Standard (E-A-D-G)

Note: For the music theory kids, this is in Dmin7, using the D dorian scale
for that nice, funky feel.

The Order is:
Intro 		x2
Verse 		x3
Chorus 		x1
Verse 		x3
Chorus 		x1
Verse 		x1
Interlude 	x1
Verse 		x4
Chorus 		x1
Outro 		x1


~ Intro & Verse ~

G|------7-(7)-----5----------7-7-4-4---4-----7--(7)-----5---------7-7-----5h7|
D|------------5h7--------------------5--------------5h7---------------5h7----|
A|---5---------------5--(5)---------------5---------------5--(5)-------------|
E|---------------------------------------------------------------------------|

G|------7-(7)-----5----------7-7-4-4---4-----7--(7)-----5---------7-7--------|
D|------------5h7--------------------5--------------5h7----------------------|
A|---5---------------5--(5)---------------5---------------5--(5)------7-7-8-8|
E|---------------------------------------------------------------------------|


~ Chorus ~

G|------4-(4)----2h4---------------------------7h9--7h9----------7h9--7h9----|
D|-----------2h4---------7--(7)----5h7---------------------------------------|
A|---2-------------------------5h7-------(7)--------------(7)----------------|
E|-------------------5------------------0--0-(0)---------0--0-(0)------------|

G|------4-(4)----2h4---------------------------5---5-------5-----6-----------|
D|-----------2h4---------7--(7)----5h7------------------5------6-------------|
A|---2-------------------------5h7------3--3-----3----3------4---------------|
E|-------------------5-------------------------------------------------------|

~ Interlude ~

G|-----10--10-----------10-10-8-8-----------10--10----------10-10------8-10--|
D|-------------8-8----------------10-10------------8-8------------8-10-------|
A|--8---------------8-(8)----------------8-------------8--8------------------|
E|---------------------------------------------------------------------------|

G|-----10--10-----------10-10-8-8-----------10--10----------10-10------------|
D|-------------8-8----------------10-10------------8-8-----------------------|
A|--8---------------8-(8)----------------8-------------8--8--------8-8-7-6---|
E|---------------------------------------------------------------------------|

G|------7-(7)-----5----------7-7-4-4---4-----7--(7)-----5---------7-7-----5h7|
D|------------5h7--------------------5--------------5h7---------------5h7----|
A|---5---------------5--(5)---------------5---------------5--(5)-------------|
E|---------------------------------------------------------------------------|

G|------7-(7)-----5----------7-7-4-4---4-----7--(7)-----5---------7-7--------|
D|------------5h7--------------------5--------------5h7----------------------|
A|---5---------------5--(5)---------------5---------------5--(5)------7-7-8-8|
E|---------------------------------------------------------------------------|

G|-----10--10-----------10-10-8-8-----------10--10----------10-10------8-10--|
D|-------------8-8----------------10-10------------8-8------------8-10-------|
A|--8---------------8-(8)----------------8-------------8--8------------------|
E|---------------------------------------------------------------------------|

G|-----10--10-----------10-10-8-8-----------10--10----------10-10------------|
D|-------------8-8----------------10-10------------8-8-----------------------|
A|--8---------------8-(8)----------------8-------------8--8--------8-8-7-6---|
E|---------------------------------------------------------------------------|

G|------7-(7)-----5----------7-7-4-4---4-----7--(7)-----5---------7-7-----5h7|
D|------------5h7--------------------5--------------5h7---------------5h7----|
A|---5---------------5--(5)---------------5---------------5--(5)-------------|
E|---------------------------------------------------------------------------|

G|------7-(7)-----5----------7-7-4-4---4-----7--(7)-----5---------7-7--------|
D|------------5h7--------------------5--------------5h7----------------------|
A|---5---------------5--(5)---------------5---------------5--(5)------7-7-8-8|
E|---------------------------------------------------------------------------|

G|---------------------------------------------------------------------------|
D|---------------------------------------------------------------------------|
A|--5----/17-----5----/17-----5----/17-----5----/17--------------------------|
E|---------------------------------------------------------------------------|

~ Outro ~

G|------7-(7)-----5----------7-7-4-4---4-----7--(7)-----5---------7-7--------|
D|------------5h7--------------------5--------------5h7----------------------|
A|---5---------------5--(5)---------------5---------------5--(5)------7-7-8-8|
E|---------------------------------------------------------------------------|

G|------7-(7)-----5----------7-7-4-4---4-----7--(7)-----5--------7-7-5-5--5-7|
D|------------5h7--------------------5--------------5h7-----------------7----|
A|---5---------------5--(5)---------------5---------------5--(5)-------------|
E|---------------------------------------------------------------------------|


~ Totally optional scale for improv'ing/covering ~

	D Dorian Scale
G|------------------4--5--7-|
D|------------5--7----------|
A|---5--7--8----------------|
E|--------------------------|



Have fun!


| /  slide up
| \  slide down
| h  hammer-on
| p  pull-off
| ~  vibrato
| +  harmonic
| x  Mute note
===============================================================================
Suggest correction
What's this?
You can suggest a correction to this tab. Community and Mods will review your correction and vote to approve or reject it.
comments
We did not receive enough feedback on this tab! Please rate:
print report bad tab
1 2 3 4 5
guest
You may want to rate the tab now too:
select rating
Please do not post tabs as comments. Select "correction" instead!