Oops, an error
Loading. Please wait.

Death Metal Tab

11,262 views 24 this week
no commentswrite comment
1 2 3 4 5
excellent!
x 4
add to favorites
launch autoscroll
font size
0
reset
how to read this tab
guitar tuner
Autoscroll
slow
fast
+/-
esc
set tempo
stop
Help us to improve Ultimate-Guitar.com Take our survey!
×
Author
Difficulty
advanced
Title		:Death Metal
Artist		:Datu’s Tribe
Tabbed By	:Ferdie Esguerra
Created		:25January2007
Email		:dhex_armageddon@yahoo.com


PLS. RATE THIS TAB: This is my own interpretation chords, lyrics and other riffs but
done. If anyone finds any errors in this, please email me and let me know. I’ve found that
is a really good song to do. Send any corrections or additions, and especially comments 
this did take me almost 2 hours to do.


Symbols:

|   /   = slide up
|   \   = slide down
|   h   = hammer-on
|   p   = pull-off

Intro:

E|------------------|------1---1--|-------3-----|
B|----2---2--0---2--|-----1---1---|------3------|
G|---2---2--2---2---|----2---2----|-----4-------|
D|--2---2--2---2----|---3---3-----|---5---------|
A|-0----------0-----|-------------|-------------|
E|------------------|-------------|-------------|

Bass intro:
|---------------------------------|
|---------------------------------|
|---------------------------------|
|--5/6--5--3--5/6--5--------------|

Bass riffs:
E|-----------------------------------------------------------|
B|-----------------------------------------------------------|
G|---7--7-----------------7--7-------------------------------|
D|--5--5--5--5/6--5--3--6--5---5--5--5--5/6--5--3--0h3--5----|


1st Stanza:
E|------------------|------1---1--|-------3-----|
B|----2---2--0---2--|-----1---1---|------3------|
G|---2---2--2---2---|----2---2----|-----4-------|
D|--2---2--2---2----|---3---3-----|---5---------|
A|-0----------0-----|-------------|-------------|
E|------------------|-------------|-------------|


Itayo nyo ang kabaong ko, ayoko ng silyado
Bigyan nyo ako ng baso at saksakan nyo ng sigarilyo ang aking bibig.
Ayoko ng mga huma-hagulgol, ayoko ng mga hini-himatay
Ang gusto ko kayo’y masaya’t buhay, dapat sa party ko ako lang ang patay.

Chorus:				     or try this one
Fill (1)			     Fill (2)
E|----5--5--5----|-----------------| |-----9----9---5---5-/--7---|
B|----5--5--5----|----10--/---12---| |---10---10---6---6-/--8----|
G|----6--6--6----|----10--/---12---| |--9----9----5---5-/--7-----|
D|----7--7--7----|----10--/---12---| |---------------------------|
A|----7--7--7----|----8---/---10---| |---------------------------|
E|----5--5--5----|-----------------| |---------------------------|


Sa aking puntod, sa gitna ng hardin
‘san sariwa ang hangin, haping-hapi ang feeling.


Bass riffs: After chorus

E|----------------------------------------------------|
B|--------------------------7--5--7--7/8--7--5--8-----|
G|----7--7--------8--8/10--7--------------------------|
D|--5--5---5--5/6-------------------------------------|


2nd Stanza:

Suot ko dapat ang aking shades, at yung nucliest mind na t-shirt ko
Uupa tayo ng magandang lugar, at sa tugtugan ang gusto ko’y mga parokya ni edgar.
Ang aking huling hiling, madaling araw nyo akong ilibing
Habang ibinababa ang aking kabaong, patugtugin nyo ang praning…

2nd Stanza:

E|------------------|------1---1--|-------3-----|
B|----2---2--0---2--|-----1---1---|------3------|
G|---2---2--2---2---|----2---2----|-----4-------|
D|--2---2--2---2----|---3---3-----|---5---------|
A|-0----------0-----|-------------|-------------|
E|------------------|-------------|-------------|


Do chorus: (2X)

Guitar Solo:

E|--------------------------------------------------------------|
B|---------------------------------------10--10-10p-10p-10p-10--|
G|--9---9-10-10/12-10---9h10------9-10-12--12-------------------|
D|----12--------------12-----10-12------------------------------|
A|--------------------------------------------------------------|
E|--------------------------------------------------------------|

E|-----------------------------------------------------------|
B|--15--13--15—15p—15p—15p-----------------------------------|
G|-----------------------------------------------------------|
D|-----------------------------------------------------------|
A|-------------------------  Sorry make you try to contunue -|
E|---------------------------konti nalang naman,just do it---|
			     For your own sake!

Last Stanza:

Pagdaan ng ilang taon, ako’y hukayin
Buksan ang kabaong at tayo’y mag pi-picture taking
Pwede rin tayong mag piknik di nalang ako kakain
Ilayo nyo yang bandehado, baka humalo ako sa giniling.
Iniwan ko na mundo, wala na akong problema…
Iniwanan ko na mundo, wala na akong problema…

  Flucking
E|------------------------|  |--------5-----------|
B|--------2--2--0--2------|  |-------5--5---------|(3X)
G|------2--2------2-------|  |------6----6--------|
D|----2---2------2--------|  |-----7------7-------|
A|--0---------------------|  |----7---------7-----|
E|------------------------|  |---5-----------5----| END…

For my loving wife and son, Rosan & Kurt Cobain
Urrutia boy’s ng Malanday Valenzuela, my former band ‘Selda Singko’
Sa mga naniniwala pa sa akin maraming salamat!
For more info. And suggestion: Email me at dhex_armageddon@yahoo.com
Suggest correction
comments
print report bad tab
guest
You may want to rate the tab now too:
select rating
Wanna post a correction for this tab? Suggest correction