Oops, an error
Loading. Please wait.

Candles Tab

version 2
version 2

Whole song

Interactive

Video

23,436 views 444 this week
no commentswrite comment
1 2 3 4 5
x 24
add to favorites
launch autoscroll
font size
0
reset
how to read this tab
guitar tuner
×
Best way to learn
"Candles"
Autoscroll
slow
fast
+/-
esc
set tempo
stop
Author
Difficulty
Tuning
Capo
  follow
intermediate
D G D G B D
4th fret
-------------------------------------------------------------------------------
                             DAUGHTER - Candles
-------------------------------------------------------------------------------
Tabbed by: k8mc
E-mail: x_k8_xx@yahoo.co.uk

Tuning: DGdgBd' (Open G)* 

        *You don't actually have to retune the high e because it's never used

CAPO 4

credit to pajamagirl19 for tabbing most of this, but it's actually played in 
Open G and I've fixed a few problems in the intro and the odd bit elsewhere

this should make it 100% accurate and also a little easier to play


[Intro]
(part 1)

d|----------------------------------------------------------------|
B|------0-------0-------0-------0-------------------------------0-|
g|--0-------0-------0-------0-*---------0-------0-------0---------|
D|5---5---7---7---4---4---5---5-----0-------0-------0-------0-----|
G|----------------------------*---5---5---5---5---4---4---4---0---|
D|----------------------------------------------------------------|

d|----------------------------------------------------------------|
B|------0-------0-------0-------0---------------------------------|
g|--0-------0-------0-------0-*---------0-------0-------0-------0-|
D|5---5---7---7---4---4---5---5-----0-------0-------0-------0-----|
G|----------------------------*---5---5---5---5---4---4---4---4--\|
D|----------------------------------------------------------------|

  *these notes are 5 on the record but Elena always plays them as
   0 (open) live, personally I prefer it that way


[Intro]
(part 2)

d|----------------------------------------------------------------|
B|----------------------------------------------------------------|
g|------0-------0-------0-------0-------0--(0)--0-------0-------0-|
D|--0-------0-------0-------0-------0--(0)--0--(0)--0--(0)--0--(0)|
G|2---2---2---2---2---2---2---2---2p0-0---0---0-------------------|
D|------------------------------------------------2---2---2p0-0---|

d|----------------------------------------------------------------|
B|---------------------(0)----------------------------------------|
g|------0-------0-------0-------0-------0-------0-------0-------0-|
D|--0-------0-------0-------0-------0-------0-------0-------0-----|
G|2---2---2---2---2---2---2---2---2p0-0---0---0-------------------|
D|------------------------------------------------2---2---2p0-0---|

d|--------------------------------|
B|-----------------------------(0)|
g|------0-------0-------0-------0-|
D|--0-------0-------0-------0-----| bit random with the optional
G|--------------------------------| notes but you get the idea
D|0---0---0---0---0---0---0---0---|


[Verse]

d|-------------------------------------------------------|--------|
B|------0-------0-------0-------0------------------------|------0-|
g|--0-------0-------0-------0-*---------0-------0-------0|--------|
D|5---5---7---7---4---4---5---5-----0-------0-------0----|--0-----|
G|----------------------------*---5---5---5---5---4---4--|4---0---| x4
D|-------------------------------------------------------|--------|

                                                         |--------|
                                                         |--------|
                                                         |------0-|
                                                         |--0-----|
                                          on last repeat |4---4--\|
                                                         |--------|

d|----------------------------------------------------------------|
B|----------------------------------------------------------------|
g|------0-------0-------0-------0-------0-------0-------0-------0-|
D|--0-------0-------0-------0-------0-------0-------0-------0-----|
G|2---2---2---2---2---2---2---2---2---2---2---2---2---2---2---2---|
D|----------------------------------------------------------------|
  getting louder ----------->>>


[Chorus]

d|----------------------------------------------------------------|
B|------0-------0-------0-------0-------0-------0-------0-------3-|
g|--0-------0-------0-------0-------0-------0-------0-------0-----|
D|2---2---2---2---4---4---4---4---0---0---0---0---0---0---0---0---|
G|----------------------------------------------------------------|
D|----------------------------------------------------------------|

d|----------------------------------------------------------------|
B|------0-------0-------0-------0-------3-------3-------3-------3-|
g|--0-------0-------0-------0-------0---0---0---0---0---0---0---0-|
D|2---2---2---2---4---4---4---4---0---0---0---0---0---0---0---0---|
G|----------------------------------------------------------------|
D|----------------------------------------------------------------|

d|----------------------------------------------------------------|
B|------0-------0-------0-------0-------0-------0-------0-------0-|
g|--0-------0-------0-------0-------0-------0-------0-------0-----|
D|2---2---2---2---4---4---4---4---0---0---0---0---0---0---0---0---|
G|----------------------------------------------------------------|
D|----------------------------------------------------------------|

d|----------------------------------------------------------------|
B|----------------------------------------------------------------|
g|0---------------0---------------0-------------------------------|
D|2---------------4---------------0-------------------------------|
G|----------------------------------------------------------------|(x2)
D|----------------------------------------------------------------|

  play around with the 3s on the B string on the repeats


[Bridge]

d|----------------------------------------------------------------|
B|-(0---0---0---0---0---0---0---0---0--(1---1---1---1---1p0)0---0)|
g|--0---0---0---0---0---0---0---0---0---0---0---0---0---0---0---0-|
D|----------------------------------------------------------------|
G|--------------------------------0---0---0---0---0---0---0-------|(x4)
D|2---2---2---2---0---0---0---0-------------------------------0---|

                |the (1---1---1---1---1p0) brackets are played on the second 
then            |repeat and then always from the second bridge onwards
                |
VERSE           |the outside brackets come in every now and then from
CHORUS          |the third time the bridge is played
BRIDGE x2       |
CHORUS          |you can also hit the middle D string instead of the B 
BRIDGE          |at points,  do what you want basically

End

please rate & comment! 


************************************

| /   slide up
| \   slide down
| h   hammer-on
| p   pull-off
| ~   vibrato
| +   harmonic
| x   Mute note
| b   Bend
| () optional

************************************
Suggest correction
comments
print report bad tab
guest
You may want to rate the tab now too:
select rating
Wanna post a correction for this tab? Suggest correction