Oops, an error
Loading. Please wait.

How tab

version 2
version 2

Whole song

3,352 views 33 this week
2 commentsread comments
1 2 3 4 5
x 7
add to favorites
×
Save as Personal and add changes to this tab that will be seen only by you. Learn more ›
×
You can save this tab as Personal to edit and correct it or add notes. All changes will be seen only by you. Learn more »
launch autoscroll
font size
0
reset
how to read this tab
guitar tuner
edit
Autoscroll
slow
fast
+/-
esc
set tempo
stop
Daughter - How
Album: Not To Disappear (2016)

Great song (and album), isn't it?
Listen to the song for timing and sliding for bass parts.


[Intro]

e|------------------------------------|
B|------------------------------------|
G|------------------------------------|
D|------------------------------------|
A|------------------------------------|
E|--10-------5---3---10-------5---3---|

    D                       G
e|------2-----------------------------|
B|--3-3---3-3-5b------------0-0-0-0-0-|
G|--------------------2-2-2-----------| x4
D|--0-0-0-0-0-0-----------------------|
A|------------------------------------|
E|--------------------2-2-2-3-3-3-3-3-|


[Verse 1]

D          G
 Moving on
D           A      G 
 Is moving in slow motion
D                G
 To keep the pain to a minimum
D             A    G
 Weightless, only wait for a fall


[Interlude]

    D                       G            D                       A
e|------2-----------------------------|------2-----------------------------|
B|--3-3---3-3-5b------------0-0-0-0-0-|--3-3---3-3-5b------------2-2-2-2-2-|
G|--------------------2-2-2-----------|--------------------2-2-2-----------|
D|--0-0-0-0-0-0-----------------------|--0-0-0-0-0-0-----------------------|
A|------------------------------------|--------------------------0-0-0-0-0-|
E|--------------------2-2-2-3-3-3-3-3-|--------------------2-2-2-----------|


[Chorus]

Bm        F#m
 How long   must I wait for you?
Bm       A       G   
 Undone   in the evening
Bm   F#m  
 How,  must I wait for you
Bm         A        G 
 To become  what I need?

    D                       G
e|------2-----------------------------|
B|--3-3---3-3-5b------------0-0-0-0-0-|
G|--------------------2-2-2-----------| x4
D|--0-0-0-0-0-0-----------------------|
A|------------------------------------|
E|--------------------2-2-2-3-3-3-3-3-|


[Verse 2]

D          G
 Holding on, souvenirs
D           A          G
 His words inked from birthdays
D          G   
 Goodbye to our empty ruins
D                  A   G
 Yeah that's when I saw her
D      A   G
 Hold me back
D      A   G
 Hold me back
D      A   G
 All   I   am
D      A   G
 All   I   am


[Interlude]

    D                       G            D                       A
e|------2-----------------------------|------2-----------------------------|
B|--3-3---3-3-5b------------0-0-0-0-0-|--3-3---3-3-5b------------2-2-2-2-2-|
G|--------------------2-2-2-----------|--------------------2-2-2-----------|
D|--0-0-0-0-0-0-----------------------|--0-0-0-0-0-0-----------------------|
A|------------------------------------|--------------------------0-0-0-0-0-|
E|--------------------2-2-2-3-3-3-3-3-|--------------------2-2-2-----------|


[Bridge]

Bm       F#m
 How long
Bm     A      G
 Before the last dance
Bm          F#m
 How come   He's the one 
      Bm       A  G
 To let me down
Bm       F#m  A
 How come  they glow
Bm        A        G
 Different in the evening?
Bm       F#m  A
 How come they stare 
Bm*       A*    G
 Distant into daylight?


[Outro] 
(The tab is played along with the lyrics, but you could use chords if you like.
Bars are extended to fit lyrics. Timing is the same as intro tab)

    D                                G                 
                               Like it's all alright?
e|---------2----------------------------------------|
B|--3--3------3--3--5b---------------0--0--0--0--0--|
G|--------------------------2--2--2-----------------|
D|--0--0---0--0--0--0-------------------------------|
A|--------------------------------------------------|
E|--------------------------2--2--2--3--3--3--3--3--|

    D                                G                  
                               Like it's all alright?
e|---------2----------------------------------------|
B|--3--3------3--3--5b---------------0--0--0--0--0--|
G|--------------------------2--2--2-----------------|
D|--0--0---0--0--0--0-------------------------------|
A|--------------------------------------------------|
E|--------------------------2--2--2--3--3--3--3--3--|

    D                       G            D                       G          D
e|------2-----------------------------|------2------------------------------------------------|
B|--3-3---3-3-5b------------0-0-0-0-0-|--3-3---3-3-5b------------0-0-0-0-0--3-----------------|
G|--------------------2-2-2-----------|--------------------2-2-2------------------------------|
D|--0-0-0-0-0-0-----------------------|--0-0-0-0-0-0------------------------0-----------------|
A|------------------------------------|-------------------------------------------------------|
E|--------------------2-2-2-3-3-3-3-3-|--------------------2-2-2-3-3-3-3-3--------------------|



************************************

| b  Bend
| *  Strum/play once 

************************************

            
            
Suggest correction
Creating personal tab
Creating personal tab
You can edit any tab online and save it as your Personal.

You can edit, replace or remove any tab part or add personal notes – all changes will be seen only by you.

Personal tabs can be accessed anytime from any device, even offline.
Learn more »
comments
print report bad tab
2 comments total.
+1 reply
crinitus 53 Jun 06, 2017 08:17 AM

perfect! and to such a fantastic song ;)

guest
You may want to rate the tab now too:
select rating
Wanna post a correction for this tab? Suggest correction