Oops, an error
Loading. Please wait.

Lifeforms Tab

14,699 views 66 this week
2 commentsread comments
1 2 3 4 5
x 7
add to favorites
launch autoscroll
font size
0
reset
how to read this tab
guitar tuner
×
Best way to learn
"Lifeforms"
Autoscroll
slow
fast
+/-
esc
set tempo
stop
Author
Tuning
D G D G B D
Artist: Daughter
Song: lifeforms
E-mail: x_k8_xx@yahoo.co.uk
Tuning: Open G
        
[Verse]
(only to start)
d|-----|----------------|----------------|----------------|----------------|
B|-----|----------3-----|----------3-----|----------3-----|----------3-----|
g|-----|--4---4-------4-|--4---4-------4-|--4---4-------4-|--4---4-------4-|
D|{4p0}|----------------|----------------|----------------|----------------|
G|-----|4---4---4---4---|4---4---4---4---|4---4---4---4---|4---4---4---4---|
D|-----|----------------|----------------|----------------|----------------|

d|----------------|----------------|----------------|----------------|
B|----------3-----|----------3-----|----------3-----|----------3-----|
g|--------------4-|--------------4-|--------------4-|--------------4-|
D|--4---4---------|--4---4---------|--4---4---------|--4---4---------|
G|0---0---0---0---|0---0---0---0---|0---0---0---0---|0---0---0---0---|
D|----------------|----------------|----------------|----------------|
        
[Chorus]
(Elena)
d|----------------|----------------|----------------|----------------| 
B|----------------|----------------|----------------|----------------| 
g|----------------|----------------|----------------|----------------| 
D|----------------|----------------|----------------|----------------| 
G|--4---4---4---4-|--4---4---4---4-|--6---6---6---6-|--6---6---6---6-| 
D|5---5---5---5---|5---5---5---5---|7---7---7---7---|7---7---7---7---| 
                                                                       
d|----------------|----------------|----------------|----------------| 
B|----------------|----------------|----------------|----------------| 
g|----------------|----------------|----------------|----------------| 
D|----------------|----------------|----------------|----------------| 
G|--11--11--11--11|--11--11--11--11|--7---7---7---7-|--6---6---6---6-| 
D|12--12--12--12--|12--12--12--12--|9---9---9---9---|7---7---7---7---| x2

d|0-0-0-0-0-0-0-0-|0-0-0-0-0-0-0-0-|0-0-0-0-0-0-0-0-|0-0-0-0-0-0-0-0-| 
B|0-0-0-0-0-0-0-0-|0-0-0-0-0-0-0-0-|0-0-0-0-0-0-0-0-|0-0-0-0-0-0-0-0-| 
g|0-0-0-0-0-0-0-0-|0-0-0-0-0-0-0-0-|0-0-0-0-0-0-0-0-|2-2-2-2-2-2-2-2-| 
D|0-0-0-0-0-0-0-0-|0-0-0-0-0-0-0-0-|0-0-0-0-0-0-0-0-|2-2-2-2-2-2-2-2-| 
G|4-4-4-4-4-4-4-4-|4-4-4-4-4-4-4-4-|4-4-4-4-4-4-4-4-|0-0-0-0-0-0-0-0-| 
D|5-5-5-5-5-5-5-5-|5-5-5-5-5-5-5-5-|5-5-5-5-5-5-5-5-|0-0-0-0-0-0-0-0-| 
                                                                       
d|0-0-0-0-0-0-0-0-|0-0-0-0-0-0-0-0-|0-0-0-0-0-0-0-0-|0-0-0-0-0-0-0-0-| 
B|0-0-0-0-0-0-0-0-|0-0-0-0-0-0-0-0-|0-0-0-0-0-0-0-0-|0-0-0-0-0-0-0-0-| 
g|0-0-0-0-0-0-0-0-|0-0-0-0-0-0-0-0-|0-0-0-0-0-0-0-0-|0-0-0-0-0-0-0-0-| 
D|2-2-2-2-2-2-2-2-|2-2-2-2-2-2-2-2-|2-2-2-2-2-2-2-2-|0-0-0-0-0-0-0-0-| 
G|0-0-0-0-0-0-0-0-|0-0-0-0-0-0-0-0-|0-0-0-0-0-0-0-0-|0-0-0-0-0-0-0-0-| 
D|2-2-2-2-2-2-2-2-|2-2-2-2-2-2-2-2-|2-2-2-2-2-2-2-2-|0-0-0-0-0-0-0-0-| x2
                                                   (leave last bar out to
                                                    lead back into verse)

(Igor)
d|----------------|----------------|----------------|----------------| 
B|--7---7---7---7-|--7---7---7-----|7---7---7---7---|7---7---7---7\5-| 
g|7---7---7---7---|7---7---7---7/9-|--9---9---9---9-|--9---9---9-----| 
D|----------------|----------------|----------------|----------------| 
G|----------------|----------------|----------------|----------------| 
D|----------------|----------------|----------------|----------------| 
                                                                       
d|----------------|----------------|----------------|----------------| 
B|--5---5---5---5-|--5---5---5---5-|--3---3---3---3-|--2---2---2---2-| 
g|7---7---7---7---|7---7---7---7---|4---4---4---4---|2---2---2---2---| 
D|----------------|----------------|----------------|----------------| 
G|----------------|----------------|----------------|----------------| 
D|----------------|----------------|----------------|----------------| x2

[Verse]

[Chorus]
(Elena)
d|----------------|----------------|----------------|----------------| 
B|----------------|----------------|----------------|----------------| 
g|----------------|----------------|----------------|----------------| 
D|----------------|----------------|----------------|----------------| 
G|--4---4---4---4-|--4---4---4---4-|--6---6---6---6-|--6---6---6---6-| 
D|5---5---5---5---|5---5---5---5---|7---7---7---7---|7---7---7---7---| 
                                                                       
d|----------------|----------------|----------------|----------------| 
B|----------------|----------------|----------------|----------------| 
g|----------------|----------------|----------------|----------------| 
D|----------------|----------------|----------------|----------------| 
G|--11--11--11--11|--11--11--11--11|--7---7---7---7-|--6---6---6---6-| 
D|12--12--12--12--|12--12--12--12--|9---9---9---9---|7---7---7---7---| x2

d|0-0-0-0-0-0-0-0-|0-0-0-0-0-0-0-0-|0-0-0-0-0-0-0-0-|0-0-0-0-0-0-0-0-| 
B|0-0-0-0-0-0-0-0-|0-0-0-0-0-0-0-0-|0-0-0-0-0-0-0-0-|0-0-0-0-0-0-0-0-| 
g|0-0-0-0-0-0-0-0-|0-0-0-0-0-0-0-0-|0-0-0-0-0-0-0-0-|2-2-2-2-2-2-2-2-| 
D|0-0-0-0-0-0-0-0-|0-0-0-0-0-0-0-0-|0-0-0-0-0-0-0-0-|2-2-2-2-2-2-2-2-| 
G|4-4-4-4-4-4-4-4-|4-4-4-4-4-4-4-4-|4-4-4-4-4-4-4-4-|0-0-0-0-0-0-0-0-| 
D|5-5-5-5-5-5-5-5-|5-5-5-5-5-5-5-5-|5-5-5-5-5-5-5-5-|0-0-0-0-0-0-0-0-| 
                                                                       
d|0-0-0-0-0-0-0-0-|0-0-0-0-0-0-0-0-|0-0-0-0-0-0-0-0-|0-0-0-0-0-0-0-0-| 
B|0-0-0-0-0-0-0-0-|0-0-0-0-0-0-0-0-|0-0-0-0-0-0-0-0-|0-0-0-0-0-0-0-0-| 
g|0-0-0-0-0-0-0-0-|0-0-0-0-0-0-0-0-|0-0-0-0-0-0-0-0-|0-0-0-0-0-0-0-0-| 
D|2-2-2-2-2-2-2-2-|2-2-2-2-2-2-2-2-|2-2-2-2-2-2-2-2-|0-0-0-0-0-0-0-0-| 
G|0-0-0-0-0-0-0-0-|0-0-0-0-0-0-0-0-|0-0-0-0-0-0-0-0-|0-0-0-0-0-0-0-0-| 
D|2-2-2-2-2-2-2-2-|2-2-2-2-2-2-2-2-|2-2-2-2-2-2-2-2-|0-0-0-0-0-0-0-0-| x2

(Igor)
d|----------------|----------------|----------------|----------------| 
B|--7---7---7---7-|--7---7---7-----|7---7---7---7---|7---7---7---7\5-| 
g|7---7---7---7---|7---7---7---7/9-|--9---9---9---9-|--9---9---9-----| 
D|----------------|----------------|----------------|----------------| 
G|----------------|----------------|----------------|----------------| 
D|----------------|----------------|----------------|----------------| 
                                                                       
d|----------------|----------------|----------------|----------------| 
B|--5---5---5---5-|--5---5---5---5-|--3---3---3---3-|--2---2---2---2-| 
g|7---7---7---7---|7---7---7---7---|4---4---4---4---|2---2---2---2---| 
D|----------------|----------------|----------------|----------------| 
G|----------------|----------------|----------------|----------------| 
D|----------------|----------------|----------------|----------------| x2

[Breakdown]
d|0-0-0-0-0-0-0-0-|0-0-0-0-0-0-0-0-|0-0-0-0-0-0-0-0-|0-0-0-0-0-0-0-0-|
B|0-0-0-0-0-0-0-0-|0-0-0-0-0-0-0-0-|0-0-0-0-0-0-0-0-|0-0-0-0-0-0-0-0-|
g|4-4-4-4-4-4-4-4-|4-4-4-4-4-4-4-4-|4-4-4-4-4-4-4-4-|4-4-4-4-4-4-4-4-|
D|0-0-0-0-0-0-0-0-|0-0-0-0-0-0-0-0-|0-0-0-0-0-0-0-0-|0-0-0-0-0-0-0-0-|
G|4-4-4-4-4-4-4-4-|4-4-4-4-4-4-4-4-|4-4-4-4-4-4-4-4-|4-4-4-4-4-4-4-4-|
D|5-5-5-5-5-5-5-5-|5-5-5-5-5-5-5-5-|5-5-5-5-5-5-5-5-|5-5-5-5-5-5-5-5-|
                                                                      
d|0-0-0-0-0-0-0-0-|0-0-0-0-0-0-0-0-|0-0-0-0-0-0-0-0-|0-0-0-0-0-0-0-0-|
B|0-0-0-0-0-0-0-0-|0-0-0-0-0-0-0-0-|0-0-0-0-0-0-0-0-|0-0-0-0-0-0-0-0-|
g|1111111111111111|1111111111111111|6-6-6-6-6-6-6-6-|7-7-7-7-7-7-7-7-| 
D|1212121212121212|1212121212121212|0-0-0-0-0-0-0-0-|0-0-0-0-0-0-0-0-|
G|1111111111111111|1111111111111111|6-6-6-6-6-6-6-6-|7-7-7-7-7-7-7-7-|
D|1212121212121212|1212121212121212|7-7-7-7-7-7-7-7-|9-9-9-9-9-9-9-9-|

(drifting away with time...)
d|0---------------|----------------|----------------|----------------| 
B|0---------------|----------------|----------------|----------------| 
g|4---------------|----------------|----------------|----------------| 
D|0---------------|----------------|----------------|----------------| 
G|4---------------|----------------|----------------|----------------| 
D|5---------------|----------------|----------------|----------------| 
                                                                       
[softly]                                                              
d|0-0-0-0-0-0-0-0-|0-0-0-0-0-0-0-0-|0-0-0-0-0-0-0-0-|0-0-0-0-0-0-0-0-| 
B|0-0-0-0-0-0-0-0-|0-0-0-0-0-0-0-0-|0-0-0-0-0-0-0-0-|0-0-0-0-0-0-0-0-| 
g|1111111111111111|1111111111111111|6-6-6-6-6-6-6-6-|7-7-7-7-7-7-7-7-| 
D|1212121212121212|1212121212121212|0-0-0-0-0-0-0-0-|0-0-0-0-0-0-0-0-| 
G|1111111111111111|1111111111111111|6-6-6-6-6-6-6-6-|7-7-7-7-7-7-7-7-| 
D|1212121212121212|1212121212121212|7-7-7-7-7-7-7-7-|9-9-9-9-9-9-9-9-| x2

[finish on]
d|0---------------|
B|0---------------|
g|4---------------|
D|0---------------|
G|4---------------|
D|5---------------|

************************************

| p  Pull-off
| \  Slide down
| /  Slide up

************************************
Suggest correction
comments
print report bad tab
2 comments total.
0 reply
ashields5 21 May 01, 2013 11:59 AM

perfect! the only thing i'd have to say is that in the verse I think it's supposed to be 3rd fret 2nd string as opposed to 2nd fret being played every time but apart from that, amazing job! well done!

guest
You may want to rate the tab now too:
select rating
Wanna post a correction for this tab? Suggest correction