Oops, an error
Loading. Please wait.

Mothers tab

2,395 views 42 this week
no commentswrite comment
1 2 3 4 5
x 7
add to favorites
×
Save as Personal and add changes to this tab that will be seen only by you. Learn more ›
×
You can save this tab as Personal to edit and correct it or add notes. All changes will be seen only by you. Learn more »
launch autoscroll
font size
0
reset
how to read this tab
guitar tuner
edit
Autoscroll
slow
fast
+/-
esc
set tempo
stop
Author
Difficulty
intermediate
[Intro]
E|-10--6---13--5--2--13-------10--6---13--5--2--13---|
B|----------------------13------------------------13-|
G|---------------------------------------------------|
D|---------------------------------------------------|
A|---------------------------------------------------|
E|---------------------------------------------------|

[Verse 1] 
You will grow all you need to grow inside my spine,  And then take what you need to 
take, what's yours is mine
E|-------10--6---13--5--2--13------------------------------10--6---13--5--2--13------|
B|---------------------------13------------------------------------------------13----|
G|-----------------------------------------------------------------------------------|
D|-----------------------------------------------------------------------------------|
A|-----------------------------------------------------------------------------------|
E|-----------------------------------------------------------------------------------|

 And then just give all you want of it to some new thing,  I'll stay here, the 
provider of that constant sting
E|-------10--6---13--5--2--13------------------------------10--6---13--5--2--13------|
B|---------------------------13------------------------------------------------13----|
G|-----------------------------------------------------------------------------------|
D|-----------------------------------------------------------------------------------|
A|-----------------------------------------------------------------------------------|
E|-----------------------------------------------------------------------------------|

They call love                     They call love
   D         Bm      F#m     Esus4              D         Bm      F#m     Esus4
E|--------------------------------------------------------------------------------------|
B|-12--12/10--7--7/10--5--5/7--5--3-------------12--12/10--7--7/10--5--5/7--8--7--------|
G|--------------------------------------------------------------------------------------|
D|--------------------------------------------------------------------------------------|
A|--------------------------------------------------------------------------------------|
E|--------------------------------------------------------------------------------------|

You will drain all you need to drain out of me , All the colors have washed away, no 
more rosy sheen 
E|-------10--6---13--5--2--13------------------------------10--6---13--5--2--13------|
B|---------------------------13------------------------------------------------13----|
G|-----------------------------------------------------------------------------------|
D|-----------------------------------------------------------------------------------|
A|-----------------------------------------------------------------------------------|
E|-----------------------------------------------------------------------------------|

Not just a pale isolated shallow water place , Oh what a place
E|-------10--6---13--5--2--13------------------------------10--6---13--5--2--13------|
B|---------------------------13------------------------------------------------13----|
G|-----------------------------------------------------------------------------------|
D|-----------------------------------------------------------------------------------|
A|-----------------------------------------------------------------------------------|
E|-----------------------------------------------------------------------------------|

I call myself                         I call myself
   D         Bm      F#m     Esus4              D         Bm      F#m     Esus4
E|--------------------------------------------------------------------------------------|
B|-12--12/10--7--7/10--5--5/7--5--3-------------12--12/10--7--7/10--5--5/7--8--7--------|
G|--------------------------------------------------------------------------------------|
D|--------------------------------------------------------------------------------------|
A|--------------------------------------------------------------------------------------|
E|--------------------------------------------------------------------------------------|

Oh love all you need to love before it goes , When your face becomes a stranger's I don't know 
E|-------10--6---13--5--2--13------------------------------10--6---13--5--2--13------|
B|---------------------------13------------------------------------------------13----|
G|-----------------------------------------------------------------------------------|
D|-----------------------------------------------------------------------------------|
A|-----------------------------------------------------------------------------------|
E|-----------------------------------------------------------------------------------|

You will never remember who I was to you , Carried in the womb 
E|-------10--6---13--5--2--13------------------------------10--6---13--5--2--13------|
B|---------------------------13------------------------------------------------13----|
G|-----------------------------------------------------------------------------------|
D|-----------------------------------------------------------------------------------|
A|-----------------------------------------------------------------------------------|
E|-----------------------------------------------------------------------------------|

I'm called mother                       I'm called mother
   D         Bm      F#m     Esus4              D         Bm      F#m     Esus4
E|--------------------------------------------------------------------------------------|
B|-12--12/10--7--7/10--5--5/7--5--3-------------12--12/10--7--7/10--5--5/7--8--7--------|
G|--------------------------------------------------------------------------------------|
D|--------------------------------------------------------------------------------------|
A|--------------------------------------------------------------------------------------|
E|--------------------------------------------------------------------------------------|

They're called home                  They're called home
   D         Bm      F#m     Esus4              D         Bm      F#m     Esus4
E|--------------------------------------------------------------------------------------|
B|-12--12/10--7--7/10--5--5/7--5--3-------------12--12/10--7--7/10--5--5/7--8--7--------|
G|--------------------------------------------------------------------------------------|
D|--------------------------------------------------------------------------------------|
A|--------------------------------------------------------------------------------------|
E|--------------------------------------------------------------------------------------|

They're called                  They're called
E|-7------10----9------14-----9------7-----------|
B|--------------------------------------10-10----|
G|-----------------------------------------------|
D|-----------------------------------------------|
A|-----------------------------------------------|
E|-----------------------------------------------|

         Called Called          Mothers Mothers
E|-7------10----9------14-----9------7-----------|
B|--------------------------------------10-10----|
G|-----------------------------------------------|
D|-----------------------------------------------|
A|-----------------------------------------------|
E|-----------------------------------------------|

Esus4                            Bm                      D
Give all you need to give  and sometimes they won't take what they need to take
       F#m                 Esus4                 Bm                    D
 The strangest chemical reaction  Inside of her brain, no she's not the same
                   F#m                     F#m
 No she's not the same  No she's not the same

[Outro]
Esus4 - Bm - D - F#m


************************************

| /  Slide up

************************************
Suggest correction
Creating personal tab
Creating personal tab
You can edit any tab online and save it as your Personal.

You can edit, replace or remove any tab part or add personal notes – all changes will be seen only by you.

Personal tabs can be accessed anytime from any device, even offline.
Learn more »
comments
print report bad tab
guest
You may want to rate the tab now too:
select rating
Wanna post a correction for this tab? Suggest correction