Oops, an error
Loading. Please wait.

Run Tab

version 1
version 1

Whole song

32,912 views 99 this week
3 commentsread comments
1 2 3 4 5
x 7
add to favorites
launch autoscroll
font size
0
reset
how to read this tab
guitar tuner
Autoscroll
slow
fast
+/-
esc
set tempo
stop
Help us to improve Ultimate-Guitar.com Take our survey!
×
Difficulty
Capo
novice
3rd fret
This tab is indeed 100% accurate so please enjoy! The strumming pattern isn't too bad to 
pick up if you just play along with the song a bit.

Standard Tuning
Capo 3rd fret



E----0-0-0-0-----0-0-0-0-----2-2-2-2----2-2-2-2-------------------------|
B----0-0-0-0-----0-0-0-0-----1-1-1-1----1-1-1-1-----1-1-1-1-----1-1-1-1-|
G----0-0-0-0-----0-0-0-0-----2-2-2-2----2-2-2-2-----0-0-0-0-----0-0-0-0-|
D----2-2-2-2-----2-2-2-2----------------------------2-2-2-2-----2-2-2-2-|
A--2-2-2-2-2---2-2-2-2-2---2-2-2-2-2--2-2-2-2-2---3-3-3-3-3---3-3-3-3-3-|
E-----------------------------------------------------------------------|

E-----3-3-3-3-----3-3------3-3------0-0-0-0-----0-0-0-0-----------------|
B-----3-3-3-3-----3-3------3-3------0-0-0-0-----0-0-0-0-----------------|
G-----0-0-0-0-----0-0------0-0------0-0-0-0-----0-0-0-0-----------------|
D-----0-0-0-0-----0-0------0-0------2-2-2-2-----2-2-2-2-----------------|
A-----2-2-2-2-----2-2------0-0------2-2-2-2--2--2-2-2-2-----------------|
E--3--3-3-3-3--3--3-3---2--2-2---0--0-0-0-0-----------------------------|


This just repeats throughout the whole song
Suggest correction
comments
print report bad tab
3 comments total.
+5 reply
guyalexanderr 362 Mar 26, 2012 08:28 AM

second chord is meant to be B7

E--2--
B--0--
G--2--
D--1--
A--2--
E-----

0 reply
Tim52 31 Aug 13, 2014 11:24 AM

Clearly wrong.

0 reply
nintendocraft12 16 Aug 05, 2016 02:47 AM

"100% correct" my ass

guest
You may want to rate the tab now too:
select rating
Wanna post a correction for this tab? Suggest correction