Oops, an error
Loading. Please wait.

Shallows Tab

version 1
version 1

Whole song

9,706 views 75 this week
1 commentread comment
1 2 3 4 5
accurate
x 2
add to favorites
launch autoscroll
font size
0
reset
how to read this tab
guitar tuner
Tab Pro tools
  • play this tab
  • loop segment
  • change instrument
  • show fretboard
  • metronome
Autoscroll
slow
fast
+/-
esc
set tempo
stop
Contributor
-------------------------------------------------------------------------------
                             SHALLOWS- Daughter
-------------------------------------------------------------------------------
Tabbed by: revery
Tuning: standard
a sound-a-like of shallows by daughter in standard tuning. used the 'in the 
shallows' tab as reference.

verse part one
e|-7-6--11---11-------------------------7-6--11---11-------------------------|
B|-0-0--0----0-----7---7---7----7---7---0-0---0---0-----9----9---9---9---9---|
G|---------------------------------------------------------------------------|
D|---------9----9----9---9----9---9-------------9----9-----9---9---9---9---9-|
A|-----------------9---9---7----7---7-------------------11---9---7---7---7---|
E|---------------------------------------------------------------------------|

e|-7--6--11---11-------------------------------------------------------------|
B|-0--0---0----0----7---7---7---7---7---7\4p-4-------------------------------|
G|---------------------------------------------------------------------------|
D|----------9----9----9---9---9---9---9--------------------------------------|
A|------------------9---9---7---7---7----------------------------------------|
E|---------------------------------------------------------------------------|

verse part two
e|-------------------7------6---------------------7------------6-------------|
B|-------9-9\5p-5----7--------------9-9\5p-5------7-7\4p-4-------------------|
G|-------9------------------6-------9--------------------------6-------------|
D|---------------6-6----4-4-------------------6-6----------4-4---------------|
A|--7-7-------------------------7-7------------------------------------------|
E|---------------------------------------------------------------------------|

chorus
e|--------7---7---7-----7---7---7-----7---7---7-----7---7---7----------------|
B|--------7---7---7-----7---7---7-----7---7---7-----7---7---7----------------|
G|---------------------------------------------------------------------------|
D|---6-6----6---6-----------------9-9---9---9---9-9---9---9------------------|
A|------------------9-9---9---9----------------------------------------------|
E|---------------------------------------------------------------------------|


************************************

| /   slide up
| \   slide down
| h   hammer-on
| p   pull-off
| ~   vibrato
| +   harmonic
| x   Mute note
| b   Bend
| pb  Pre-bend
| br  Bend release
| pbr Pre-bend release
| brb Bend release bend

************************************
comments
We did not receive enough feedback on this tab! Please rate:
print report bad tab
1 2 3 4 5
1 comment total.
0 reply
kalebCM wrote on December 4 2014, 09:00 am

Lack of accuracy. it doesnt sound how it actually should do. I guess its not worth 5 stars, not even 3. f f f f f f fqwe fqwe fq fqw efqwe foqwjef qe
f wqefoq wefoqwe t
q

I want to post or [tab]
guest
You may want to rate the tab now too:
select rating
Please do not post tabs as comments. Select "correction" instead!