Oops, an error
Loading. Please wait.

Smother Tab

version 1
version 1

Whole song

88,548 views 261 this week
3 commentsread comments
1 2 3 4 5
excellent!
x 32
add to favorites
launch autoscroll
font size
0
reset
how to read this tab
guitar tuner
Autoscroll
slow
fast
+/-
esc
set tempo
stop
Help us to improve Ultimate-Guitar.com Take our survey!
×
Author
Difficulty
-------------------------------------------------------------------------------
                             SMOTHER - Daughter
-------------------------------------------------------------------------------
Tabbed by: Sammichblooper
E-mail: spun-k3y@hotmail.com

Listen to the song for strumming patterns/ tune in general :3

Tuning: Standard


[Intro part 1]
e|----------------------------1-----------------|
B|-----------------------------------1----------|
G|-----3-------6------6-------1-------------3---|
D|-----------------------------------1----------|
A|-----4-------8----------------------------4---|
E|--------------------6-------------------------|


[Intro part 2]
e|--------------------------1-----------------|
B|--------------------------------------------|
G|------3------6-------6-----------------3----|
D|--------------------------------6-----------|
A|-4-----------8------------------4------4----|
E|---------------------6----------------------|


[Verse 1]
e|------------1-----------------------------1------------------|
B|------------------------------------------2------1-----------|
G|-----6------1------6-------3-------3------1------1------3----|
D|-----------------------------------4-------------1------4----|
A|-----8-------------8-------4-------4--------------------4----|
E|-------------------------------------------------------------|


[Chorus]
e|-----1------1------2-------------1----|
B|-----2------2------4-------------1----|
G|-----1------3------3------3------1----|
D|--------------------------4-----------|
A|--------------------------4-----------|
E|--------------------------------------|

Play Intro Part 1


[Verse 2]
e|-----------1---------------------------------1--1-------------------------|
B|---------------------------------------------2--2-----1--1----------------|
G|-----6-----1-----6------3-----3--3--3--3-----1--1-----1--1-----3--3--3--3-|
D|------------------------------4--4--4--4--------------1--1-----4--4--4--4-|
A|-----8-----------8------4-----4--4--4--4-----------------------4--4--4--4-|
E|--------------------------------------------------------------------------|

                         to follow....
e|----1--1-----------------------------------|
B|----2--2-----1--1--------------------------|
G|----1--1-----1--1------3-----6----3----6---|
D|-------------1--1------4-----8----4----8---|
A|-----------------------4-----8----4----8---|
E|-------------------------------------------|


PLAY CHORUS.


[Bridge]
e|----------------------------------------------------------|
B|--------------1---------------1----------------1----------|
G|----3----6----1----3-----6----1----3-----6-----1-----3----|
D|----4----8----1----4-----8----1----4-----8-----1-----4----|
A|----4----8---------4-----8---------4-----8-----------4----|
E|----------------------------------------------------------|


[Outro]
e|--------------------|
B|----------1---------|
G|----6-----1-----3---|
D|----8-----1-----4---|
A|----8-----------4---|
E|--------------------| x4

Thanks for checking this out, i hope it you enjoy playing this awesome song!



 
Suggest correction
comments
print report bad tab
3 comments total.
+1 reply
mynameisbambam 10 wrote on February 28 2013, 08:55 pm

this is fabulous thank you so much for posting this!

+1 reply
sammichblooper 132 wrote on April 7 2013, 05:21 am

no worries!

+2 reply
olekingcool 10 wrote on November 1 2013, 04:36 pm

GREAT tab!

One thing: instead of playing


e|---
B|-1-
G|-1-
D|-1-
A|---
E|---


Try this: (it's easier to play, and fits with the chord structure)


e|---
B|---
G|-5-
D|-6-
A|-6-
E|---

guest
You may want to rate the tab now too:
select rating
Wanna post a correction for this tab? Suggest correction