Oops, an error
Loading. Please wait.

Still Tab

version 1
version 1

Intro

Whole song

Interactive

3,253 views 1 this week
2 commentsread comments
1 2 3 4 5
x 5
add to favorites
launch autoscroll
font size
0
reset
how to read this tab
guitar tuner
Autoscroll
slow
fast
+/-
esc
set tempo
stop
Help us to improve Ultimate-Guitar.com Take our survey!
×
Author
Difficulty
intermediate
Tuning: standard
intro only!

e|----x--------x--------x-------------x---------------------------------------|
B|----x--------x--------x-------------x---------------------------------------|
G|----5--------x--------x-------------x---------------------------------------|
D|----x--------5--------5------------7/9/7------------------------------------|
A|----7--------5--------3-------------x---------------------------------------|
E|----x--------x--------x-------------x---------------------------------------|
Suggest correction
comments
print report bad tab
2 comments total.
+1 reply
natalyac 93 Jun 29, 2013 08:56 AM

e|----x--------x--------x-------------x---------------------------------------|
B|----x--------x--------x-------------x---------------------------------------|
G|----x--------x--------x-------------x---------------------------------------|
D|----5--------5--------5------------7/9/7------------------------------------|
A|----7--------5--------3-------------x---------------------------------------|
E|----x--------x--------x-------------x---------------------------------------|

0 reply
ivys83 72 Jul 25, 2014 12:18 PM

e|----x--------x--------x-------------x---------------------------------------|
B|----x--------x--------x-------------x---------------------------------------|
G|----x--------x--------x-------------x---------------------------------------|
D|----5--------5--------5------------7/9/7------------------------------------|
A|----7--------5--------3-------------x---------------------------------------|
E|----x--------x--------x-------------x---------------------------------------|

guest
You may want to rate the tab now too:
select rating
Wanna post a correction for this tab? Suggest correction