Oops, an error
Loading. Please wait.

Still Tab

version 1
version 1

Whole song

Interactive

4,353 views 24 this week
1 commentread comment
1 2 3 4 5
please rate
add to favorites
launch autoscroll
font size
0
reset
how to read this tab
guitar tuner
Autoscroll
slow
fast
+/-
esc
set tempo
stop
Help us to improve Ultimate-Guitar.com Take our survey!
×
Difficulty
novice


Intro/Verses

E|---------------------|
B|-------------2h4-----|
G|--0---0---0----------|
D|--2---0--------------|
A|----------3----------|
E|---------------------| x3

_____________________________________________________________________________
Chorus
 
Strumming pattern: DUDUDUD

  Em           
Still with feet touching
  C
Still with eyes meeting
  D
Still our hands match
  G
Still with hearts beating
___________________________________________________________________

Outro

Just strum these once. There's no strumming pattern as such.

E|-0---0---0---0-----------|
B|-0---0---0---2h4---------|
G|-0---0---0---0-----------|
D|-2---0---0---0-----------|
A|-0---0---3---0-----------|
E|-0---0---0---0-----------|
Suggest correction
Give kudos to tab author, rate the tab!
1 2 3 4 5
comments
print report bad tab
1 comment total.
0 reply
natalyac 93 wrote on June 29 2013, 08:52 am

In the intro/verse I would play 2h4p2 on the G string rather than 2h4 on the B string. Also it sounds a bit better if you use
G|--0-----0---|
D|--2p0---0---|
a couple times instead. Anyway, thanks for this, it's not perfect but it's close enough :)

guest
You may want to rate the tab now too:
select rating
Please do not post tabs as comments. Select "correction" instead!