Oops, an error
Loading. Please wait.

The Woods Tab

24,632 views 75 this week
2 commentsread comments
1 2 3 4 5
x 28
add to favorites
launch autoscroll
font size
0
reset
how to read this tab
guitar tuner
Autoscroll
slow
fast
+/-
esc
set tempo
stop
Help us to improve Ultimate-Guitar.com Take our survey!
×
Author
Difficulty
Tuning
intermediate
D A D G B E
The Woods by Daughter
Tabbed by Taylor Genoway

Tuning DADGBe
Capo None

[Intro]
e|-------------------|
B|-------------------|
G|--------7-------7--|  X4
D|----0-------0------|
A|--9---9---9---9----|
D|-------------------|

[Verse]
PART I
e|-----------------------------------|
B|-----------------------------------|
G|--------7-------7-------6-------6--|
D|----0-------0-------0-------0------|
A|--9---9---9---9---7---7---7---7----|
D|-----------------------------------|

PART II
e|-----------------------------------|
B|-----------------------------------|
G|--------4-------4-------4-------4--|
D|----0-------0-------0-------0------|
A|--5---5---5---5---5---5---5---5----|
D|-----------------------------------|

REPEAT PART 1 & PART II

PART III
e|-----------------------------------|
B|-----------------------------------|
G|--------4-------4-------4-------4--|
D|----0-------0-------0-------0------|
A|-----------------------------------|
D|--5---5---5---5---5---5---5---5----|

[BRIDGE/CHORUS]
e|--------------------------------------------------------------------|
B|--------------------------------------------------------------------|
G|----11--11--11--11---6---6---7---7---4---4---4---4---4---4---4---4--|
D|-----0---0---0---0---0---0---0---0---0---0---0---0---0---0---0---0--|
A|--------------------------------------------------------------------|
D|--12---------------7-------9-------5--------------------------------|

e|------------------------------------------------------------|
B|------------------------------------------------------------|
G|----11--11--11--11---6---6---7---7---7---7---7---7---7---7--|
D|-----0---0---0---0---0---0---0---0---0---0---0---0---0---0--|
A|------------------------------------------------------------|
D|--12---------------7-------9--------------------------------|

All of the parts are listed. Listen to figure out when each part is played.
Suggest correction
comments
print report bad tab
2 comments total.
+1 reply
GeekyMina 12 May 01, 2014 02:44 PM

great tab : )

0 reply
ajdre 10 Nov 09, 2015 03:15 PM

Can anyone help with lyrics placement? :)

guest
You may want to rate the tab now too:
select rating
Wanna post a correction for this tab? Suggest correction