Oops, an error
Loading. Please wait.

Took Your Breath Away Tab

1,912 views 42 this week
no commentswrite comment
1 2 3 4 5
please rate
add to favorites
launch autoscroll
font size
0
reset
how to read this tab
guitar tuner
Autoscroll
slow
fast
+/-
esc
set tempo
stop
Help us to improve Ultimate-Guitar.com Take our survey!
×
Author
chococigs 133
Took Your Breath Away
by Daughter (Elena Tonra)


chords: (to chose from. ha.)
[not exact chords but this is how i play it]

[E]    Esus2 | x744xx
          E6 | x796xx
       Emaj7 | x798xx

[G#]    G#m7 | 4x44xx

[Eb]    B/Eb | x644xx or [*]x698xx
    Badd2/Eb | x696xx

[A#]   F#/A# | 6x46xx
        B/A# | 6x44xx


plucking patterns:

 [1a]
e|------------------|
B|-----------2------|
G|---6---6----4---4-|
D|----9---9------4--|
A|-7---7-------6----|
E|---------4--------|
   E   E   G#  Eb

 [1b]
e|------------------|
B|------------------|
G|----4---4---4---4-|
D|---4---4---4---4--|
A|-7---7-------6----|
E|---------4--------|
   E   E   G#  Eb

 [1*]
e|------------------|
B|------------------|
G|----4---4---------|
D|---4---4----------|
A|-7---7------------|
E|---------4~-------|
   E   E   G#

 [*]
e|----------------------------------|
B|----------------------------------|
G|---6---6--------4---4---4---------|
D|----9---9------4---4---4----------|
A|-7---7-------6---7---7---6~-------|
E|---------4~-----------------------|
   E   E   G#  Eb  E   E   Eb

 [2]
e|------------------|
B|------------------|
G|---6---6----4---4-|
D|----9---9--4---4--|
A|-7---7---6---6----|
E|------------------|
   E   E   Eb  Eb

 [2*]
e|------------------|
B|------------------|
G|---6---6----------|
D|----9---9---------|
A|-7---7---6~-------|
E|------------------|
   E   E   Eb

 [3]
e|----------------------------------|
B|----------------------------------|
G|----4---4---4---4---4---4---4---4-|
D|---4---4---4---4---4---4---4---4--|
A|-7---7---6---6--------------------|
E|-----------------6---6---4---4----|
   E   E   Eb  Eb  A#  A#  G#  G#

 [3*]
e|----------------------------------|
B|----------------------------------|
G|----4---4---4---4---4---4---------|
D|---4---4---4---4---4---4----------|
A|-7---7---6---6--------------------|
E|-----------------6---6---4--------|
   E   E   Eb  Eb  A#  A#  G#

 [fade]
e|------------------|
B|------------------|
G|----4---4---4-----|
D|---4---4---4------|
A|------------------|
E|-4---4---4--(4~)--|

----------------------------------/

intro: [1a] [1b]

        [1a]          [1b]
Would it be okay, if I took your breath away?
    [1a]               [1*]
Well, only for a while.   Only it till it hurts inside.

  [*]
And oh oh

        [3]
Well it feels like love
But I'm not sure
If it really does

       [3]
And it hurts like love               [3*]
But I'm not sure if it hurts enough, no no

      [1a]     [1b]                   [1a]
So, you move me. So I almost fall, yeah
                    [1*]
If I just disappeared would you even notice at all?

    [2]
Well, no
            [2*]
I don't think so.

          [3]
And all I want is you
But I'm not sure if you want me to
       [3]
When I go I know I'll cry
And I'm not sure
                            [3]
If your eyes would remain dry, yeah
{3*]
dry, yeah, yeah...

         [1a]           [1b]
Would it be alright, if I stayed with you tonight?
   [1a]                 [1*]                    
Well, would it be ok if I took your breath away?

[*]
  No.

        [3]
Well I feel all alone
But I'm not sure if you're on your own
        [3]
And I feel like a fool
And I'm not sure
Why I'm waiting for you
           [3]
'Cause it feels like love
And I'm not sure
If it really does
       [3*]
And it hurts
It hurts like love
And I'm not sure
If it hurts enough

       [3]
I'm not sure. I'm not sure.
I'm not sure. I'm not sure.
       [3]       
If it hurts enough
If it hurts enough
                [fade]
If it hurts enough



----------------------------------/
----------------------------------/

easier plucking:
capo on 4th

 [1a]
e|------------------|
B|------------------|
G|----0---0---0---0-|
D|---7---7---7---0--|
A|------------------|
E|-8---8---0---7----|

 [1b]
e|------------------|
B|------------------|
G|----0---0---0---0-|
D|---0---0---0---0--|
A|------------------|
E|-8---8---0---7----|

 [*]
e|----------------------------------|
B|----------------------------------|
G|----0---0-------0---0---0---------|
D|---7---7-------0---0---0----------|
A|----------------------------------|
E|-8---8---0~--7---8---8---7~-------|

 [2]
e|------------------|
B|------------------|
G|----0---0---0---0-|
D|---7---7---0---0--|
A|------------------|
E|-8---8---7---7----|

 [*]
e|----------------------------------|
B|----------------------------------|
G|----0---0-------0---0---0---------|
D|---7---7-------0---7---7----------|
A|----------------------------------|
E|-8---8---0~--7---8---8---7~-------|

 [3]
e|----------------------------------|
B|----------------------------------|
G|----0---0---0---0---0---0---0---0-|
D|---0---0---0---0---0---0---0---0--|
A|----------------------------------|
E|-8---8---7---7---2---2---0---0----|

 [3*]
e|----------------------------------|
B|----------------------------------|
G|----0---0---0---0---0---0---------|
D|---0---0---0---0---0---0----------|
A|----------------------------------|
E|-8---8---7---7---2---2---0~-------|

 [fade]
e|------------------|
B|------------------|
G|----0---0---0-----|
D|---0---0---0------|
A|------------------|
E|-0---0---0--(0~)--|
Suggest correction
What's this?
You can suggest a correction to this tab. Community and Mods will review your correction and vote to approve or reject it.
comments
We did not receive enough feedback on this tab! Please rate:
print report bad tab
1 2 3 4 5
guest
You may want to rate the tab now too:
select rating
Please do not post tabs as comments. Select "correction" instead!