Oops, an error
Loading. Please wait.
We have Chord Pro version of Youth.
It's the closest thing you can get to the original song and it has interactive parts. Check out the tab »
×

Youth Tab

version 1
version 1

Whole song

  • This version of the tab doesn't require a capo to play it.
  • Full song including chorus, all lyrics.

Interactive

Video

772,531 views 1,851 this week
31 commentsread comments
1 2 3 4 5
x 591
add to favorites
launch autoscroll
font size
0
reset
how to read this tab
guitar tuner
Autoscroll
slow
fast
+/-
esc
set tempo
stop
Author
Capo
5th fret
           Shadows settle on the place…
e|------------------------------------------------------------------------|
B|--------3-------3/5-------5------5/8--------8------8\7------7-------7\3-|
G|----0-------0---------0-------0---------0-------0--------0-------0------|
D|------------------------------------------------------------------------|
A|--2---2---2---2-----3---3---3---3-----7---7---7---7----5---5---5---5----|
E|------------------------------------------------------------------------|

            Our minds are troubled by…
e|------------------------------------------------------------------------|
B|--------3-------3/5-------5------5/8--------8------8\7------7-------7\3-|
G|----0-------0---------0-------0---------0-------0--------0-------0------|
D|------------------------------------------------------------------------|
A|--2---2---2---2-----3---3---3---3-----7---7---7---7----5---5---5---5----|
E|------------------------------------------------------------------------|

    Destroy the middle...                                       From the
e|------------------------------------------------------------------------|
B|--------3-------3/5-------5------5/8--------8------8\7------7-------7\3-|
G|----0-------0---------0-------0---------0-------0--------0-------0------|
D|------------------------------------------------------------------------|
A|--2---2---2---2-----3---3---3---3-----7---7---7---7----5---5---5---5----|
E|------------------------------------------------------------------------|

start to the finish line...                     But if
e|------------------------------------------------------------------------|
B|--------3-------3/5-------5------5/8--------8------8\7------7-------7\3-|
G|----0-------0---------0-------0---------0-------0--------0-------0------|
D|------------------------------------------------------------------------|
A|--2---2---2---2-----3---3---3---3-----7---7---7---7----5---5---5---5----|
E|------------------------------------------------------------------------|

   You’re still bleeding you’re the lucky one....
e|-----------------------------------------------------|
B|--3------5------8------7------3------5------8------7-|
G|--0------0------0------0------0------0------0------0-|
D|-----------------------------------------------------|
A|--2------3------7------5------2------3------7------5-|
E|-----------------------------------------------------|

   Setting fire to our insides for fun...                 Collecting
e|------------------------------------------------------------------------|
B|--------3-------3/5-------5------5/8--------8------8\7------7-------7\3-|
G|----0-------0---------0-------0---------0-------0--------0-------0------|
D|------------------------------------------------------------------------|
A|--2---2---2---2-----3---3---3---3-----7---7---7---7----5---5---5---5----|
E|------------------------------------------------------------------------|

    Names of the lovers that went wrong…
e|------------------------------------------------------------------------|
B|--------3-------3/5-------5------5/8--------8------8\7------7-------7/8-|
G|----0-------0---------0-------0---------0-------0--------0-------0------|
D|------------------------------------------------------------------------|
A|--2---2---2---2-----3---3---3---3-----7---7---7---7----5---5---5---5----|
E|------------------------------------------------------------------------|
   
e|--------------------------------------------------------------------|
B|---------8-------8-------8-------------5------5/7------7------7/8---|
G|-----0-------0-------0-------0-----0-------0-------0-------0--------|
D|--------------------------------------------------------------------|
A|---7---7---7---7---7---7---7---2-3---3---3---3---5---5---5---5------|
E|--------------------------------------------------------------------|
last line 4x, then back to the beginning and so on.....
The bridge has the same pattern like the verse

***********************

/  Slide UP
\  Slide Down

***********************
Suggest correction
comments
print report bad tab
31 comments total. Showing first comments.
+16 reply
Sehryn 62 Jan 26, 2012 08:11 PM

Brilliant!! Thanks!

+6 reply
JackSplatP 10 Jun 17, 2012 12:40 PM

Getting sick of this now! I can't delete/edit my posts under 'corrections' so I'll put this here haha. Third times a charm!

Thankyou for working on this, I love playing this song! I edited your tab a little and play the notes below, (with the D string also following the chord progression). In my opinion, this adds a fuller sound to the picking, but it's all down to preference!

e|-------------------------------------------------------------------------|
B|--------3-------3/5-------5------5/8--------8-------8\7------7-------7\3-|
G|-------------------------------------------------------------------------|
D|----0-------0---------2-------2---------5-------5-------4-------4------|
A|--2---2---2---2-----3---3---3---3-----7---7---7---7----5---5---5---5----|
E|------------------------------------------------------------------------|


Thanks again!

0 reply
iFlow 10 Sep 16, 2012 04:00 PM

Thank you for this tab.

guest
You may want to rate the tab now too:
select rating
Wanna post a correction for this tab? Suggest correction