Oops, an error
Loading. Please wait.

Youth Tab

version 2
version 2

Whole song

  • This version of the tab doesn't require a capo to play it.
  • Full song including chorus, all lyrics.

Interactive

Video

6,623 views 48 this week
no commentswrite comment
1 2 3 4 5
x 5
add to favorites
launch autoscroll
font size
0
reset
how to read this tab
guitar tuner
Autoscroll
slow
fast
+/-
esc
set tempo
stop
Help us to improve Ultimate-Guitar.com Take our survey!
×
Author
Difficulty
intermediate
About this tab version
This version of the tab doesn't require a capo to play it. Was this info helpful? Yes No
-------------------------------------------------------------------------------
                             Youth - Daughter
-------------------------------------------------------------------------------
Tabbed by: Spohs
E-mail: spohs@hotmail.co.uk

Tuning: Standard

I decided to write a tab for this song without a capo as every other tab requires one.
This tab is a little harder to play but doesn't require a capo.

e|---------------------------------------------------------------------------|
B|------------8------------8------------10------------10---------------------|
G|---------------------------------------------------------------------------|
D|-----10-----------10-----------10------------10----------------------------|
A|--7------7-----7------7-----8------8------8------8-------------------------|
E|---------------------------------------------------------------------------|
                                                                                   x4
e|---------------------------------------------------------------------------|
B|--------------13--------------13--------------12--------------12-----------|
G|---------------------------------------------------------------------------|
D|------10--------------10--------------10--------------10-------------------|
A|--12------12------12------12------10------10------10------10---------------|  
E|---------------------------------------------------------------------------|
 


e|---------------------------------------------------------------------------|
B|--8------10-----13------12------8------10-----13------12-------------------|
G|---------------------------------------------------------------------------|
D|--10-----10-----10------10------10-----10-----10------10-------------------|
A|--7------8------12------10------7------8------12------10-------------------|
E|---------------------------------------------------------------------------|
 


e|---------------------------------------------------------------------------|
B|------------8------------8------------10------------10---------------------|
G|---------------------------------------------------------------------------|
D|-----10-----------10-----------10------------10----------------------------|
A|--7------7-----7------7-----8------8------8------8-------------------------|
E|---------------------------------------------------------------------------|
                                                                                 x2  
e|---------------------------------------------------------------------------|
B|--------------13--------------13--------------12--------------12-----------|
G|---------------------------------------------------------------------------|
D|------10--------------10--------------10--------------10-------------------|
A|--12------12------12------12------10------10------10------10---------------|  
E|---------------------------------------------------------------------------|
 
 
e|----------------------------------------------------|
B|--------------13--------------13--------------13----|
G|----------------------------------------------------|
D|------10--------------10--------------10------------|
A|--12------12------12------12------12------12--------|
E|----------------------------------------------------|
                                                                                x4
e|---------------------------------------------------------------------------|
B|--------------10------------10--------------12--------------12-------------|
G|---------------------------------------------------------------------------|
D|-------10------------10-------------12--------------12---------------------|
A|--7/8------8------8------8------10------10------10------10-----------------|
E|---------------------------------------------------------------------------|



************************************

| x  Dead note
| /  Slide up

************************************
Suggest correction
comments
print report bad tab
guest
You may want to rate the tab now too:
select rating
Wanna post a correction for this tab? Suggest correction