Oops, an error
Loading. Please wait.

Youth Tab

version 3
version 3

Whole song

  • This version of the tab doesn't require a capo to play it.
  • Full song including chorus, all lyrics.

Interactive

Video

355 views 54 this week
no commentswrite comment
1 2 3 4 5
x 3
add to favorites
launch autoscroll
font size
0
reset
how to read this tab
guitar tuner
Autoscroll
slow
fast
+/-
esc
set tempo
stop
Help us to improve Ultimate-Guitar.com Take our survey!
×
Author
Difficulty
Capo
novice
5th fret
About this tab version
Full song including chorus, all lyrics. Was this info helpful? Yes No
Capo on 5th fret.

[Intro]
e|-----------------|----------------|----------------|----------------|
B|-------3-------3/|5-----5-------5-|------8-------8-|------7-------0-|
G|---0-------0-----|--0-------0-----|--0-------0-----|--0-------0-----|
D|-----------------|----------------|----------------|----------------|
A|-2---2---2---2---|3---3---3---3---|7---7---7---7---|5---5---5---0---|
E|-----------------|----------------|----------------|----------------|
   ^ ' ^ ' ^ ' ^ ' |^ ' ^ ' ^ ' ^ ' |^ ' ^ ' ^ ' ^ ' |^ ' ^ ' ^ ' ^ ' |
   1   2   3   4    1   2   3   4    1   2   3   4    1   2   3   4    

e|-----------------|----------------|----------------|----------------|----------------|
B|-------3-------3/|5-----5-------5-|------8-------8-|------7-------7-|------7-------0-|
G|---0-------0-----|--0-------0-----|--0-------0-----|--0-------0-----|--0-------0-----|
D|-----------------|----------------|----------------|----------------|----------------|
A|-2---2---2---2---|3---3---3---3---|7---7---7---7---|5---5---5---5---|5---5---5---0---|
E|-----------------|----------------|----------------|----------------|----------------|
   ^ ' ^ ' ^ ' ^ ' |^ ' ^ ' ^ ' ^ ' |^ ' ^ ' ^ ' ^ ' |^ ' ^ ' ^ ' ^ ' |^ ' ^ ' ^ ' ^ ' |
   1   2   3   4    1   2   3   4    1   2   3   4    1   2   3   4    1   2   3   4    


[Verse 1]
e|-----------------|----------------|----------------|----------------|
B|-------3-------3-|------5-------5-|------8-------8-|------7-------0-|
G|---0-------0-----|--0-------0-----|--0-------0-----|--0-------0-----|
D|-----------------|----------------|----------------|----------------|
A|-2---2---2---2---|3---3---3---3---|7---7---7---7---|5---5---5---0---|
E|-----------------|----------------|----------------|----------------|
   ^ ' ^ ' ^ ' ^ ' |^ ' ^ ' ^ ' ^ ' |^ ' ^ ' ^ ' ^ ' |^ ' ^ ' ^ ' ^ ' |
   1   2   3   4    1   2   3   4    1   2   3   4    1   2   3   4    
           shadows settle on the     place that you left

e|-----------------|----------------|----------------|----------------|
B|-------3-------3-|------5-------5-|------8-------8-|------7-------0-|
G|---0-------0-----|--0-------0-----|--0-------0-----|--0-------0-----|
D|-----------------|----------------|----------------|----------------|
A|-2---2---2---2---|3---3---3---3---|7---7---7---7---|5---5---5---0---|
E|-----------------|----------------|----------------|----------------|
   ^ ' ^ ' ^ ' ^ ' |^ ' ^ ' ^ ' ^ ' |^ ' ^ ' ^ ' ^ ' |^ ' ^ ' ^ ' ^ ' |
   1   2   3   4    1   2   3   4    1   2   3   4    1   2   3   4    
       our minds are troubled by the emptiness

e|-----------------|----------------|----------------|----------------|
B|-------3-------3-|------5-------5-|------8-------8-|------7-------0-|
G|---0-------0-----|--0-------0-----|--0-------0-----|--0-------0-----|
D|-----------------|----------------|----------------|----------------|
A|-2---2---2---2---|3---3---3---3---|7---7---7---7---|5---5---5---0---|
E|-----------------|----------------|----------------|----------------|
   ^ ' ^ ' ^ ' ^ ' |^ ' ^ ' ^ ' ^ ' |^ ' ^ ' ^ ' ^ ' |^ ' ^ ' ^ ' ^ ' |
   1   2   3   4    1   2   3   4    1   2   3   4    1   2   3   4    
         destroy the middle it's a waste of time               from the

e|-----------------|----------------|----------------|----------------|
B|-3---------------|5---------------|8---------------|7---------------|
G|-0---------------|0---------------|0---------------|0---------------|
D|-x---------------|x---------------|x---------------|x---------------|
A|-2---------------|3---------------|7---------------|5---------------|
E|-----------------|----------------|----------------|----------------|
   ^ ' ^ ' ^ ' ^ ' |^ ' ^ ' ^ ' ^ ' |^ ' ^ ' ^ ' ^ ' |^ ' ^ ' ^ ' ^ ' |
   1   2   3   4    1   2   3   4    1   2   3   4    1   2   3   4    
   perfect          start     to the finish line                 and if


[Pre-Chorus 1]
e|-----------------|----------------|----------------|----------------|
B|-------3-------3-|------5-------5-|------8-------8-|------7-------0-|
G|---0-------0-----|--0-------0-----|--0-------0-----|--0-------0-----|
D|-----------------|----------------|----------------|----------------|
A|-2---2---2---2---|3---3---3---3---|7---7---7---7---|5---5---5---0---|
E|-----------------|----------------|----------------|----------------|
   ^ ' ^ ' ^ ' ^ ' |^ ' ^ ' ^ ' ^ ' |^ ' ^ ' ^ ' ^ ' |^ ' ^ ' ^ ' ^ ' |
   1   2   3   4    1   2   3   4    1   2   3   4    1   2   3   4    
   you're still breathing you're the lucky ones                   cause

e|-----------------|----------------|----------------|----------------|
B|-------3-------3-|------5-------5-|------8-------8-|------7-------0-|
G|---0-------0-----|--0-------0-----|--0-------0-----|--0-------0-----|
D|-----------------|----------------|----------------|----------------|
A|-2---2---2---2---|3---3---3---3---|7---7---7---7---|5---5---5---0---|
E|-----------------|----------------|----------------|----------------|
   ^ ' ^ ' ^ ' ^ ' |^ ' ^ ' ^ ' ^ ' |^ ' ^ ' ^ ' ^ ' |^ ' ^ ' ^ ' ^ ' |
   1   2   3   4    1   2   3   4    1   2   3   4    1   2   3   4    
   most of us are heaving through corrupted lungs               setting

e|-----------------|----------------|----------------|----------------|
B|-------3-------3-|------5-------5-|------8-------8-|------7-------0-|
G|---0-------0-----|--0-------0-----|--0-------0-----|--0-------0-----|
D|-----------------|----------------|----------------|----------------|
A|-2---2---2---2---|3---3---3---3---|7---7---7---7---|5---5---5---0---|
E|-----------------|----------------|----------------|----------------|
   ^ ' ^ ' ^ ' ^ ' |^ ' ^ ' ^ ' ^ ' |^ ' ^ ' ^ ' ^ ' |^ ' ^ ' ^ ' ^ ' |
   1   2   3   4    1   2   3   4    1   2   3   4    1   2   3   4    
   fire to our insides for fun                               collecting

e|-----------------|----------------|----------------|----------------|
B|-3---------------|5---------------|8---------------|7---------------|
G|-0---------------|0---------------|0---------------|0---------------|
D|-x---------------|x---------------|x---------------|x---------------|
A|-2---------------|3---------------|7---------------|5---------------|
E|-----------------|----------------|----------------|----------------|
   ^ ' ^ ' ^ ' ^ ' |^ ' ^ ' ^ ' ^ ' |^ ' ^ ' ^ ' ^ ' |^ ' ^ ' ^ ' ^ ' |
   1   2   3   4    1   2   3   4    1   2   3   4    1   2   3   4    
   names of the lovers that went wrong       the lovers that went wrong


[Chorus 1]
e|-----------------|----------------|----------------|----------------|
B|-------8-------8-|------8-------3/|5-----5-------5-|------7-------7-|
G|---0-------0-----|--0-------0-----|--0-------0-----|--0-------0-----|
D|-----------------|----------------|----------------|----------------|
A|-7---7---7---7---|7---7---7---2---|3---3---3---3---|5---5---5---5---|
E|-----------------|----------------|----------------|----------------|
   ^ ' ^ ' ^ ' ^ ' |^ ' ^ ' ^ ' ^ ' |^ ' ^ ' ^ ' ^ ' |^ ' ^ ' ^ ' ^ ' |
   1   2   3   4    1   2   3   4    1   2   3   4    1   2   3   4    

e|-----------------|----------------|----------------|----------------|
B|-------8-------8-|------8-------3/|5-----5-------5-|------7-------7-|
G|---0-------0-----|--0-------0-----|--0-------0-----|--0-------0-----|
D|-----------------|----------------|----------------|----------------|
A|-7---7---7---7---|7---7---7---2---|3---3---3---3---|5---5---5---5---|
E|-----------------|----------------|----------------|----------------|
   ^ ' ^ ' ^ ' ^ ' |^ ' ^ ' ^ ' ^ ' |^ ' ^ ' ^ ' ^ ' |^ ' ^ ' ^ ' ^ ' |
   1   2   3   4    1   2   3   4    1   2   3   4    1   2   3   4    


[Verse 2]
e|-----------------|----------------|----------------|----------------|
B|-------3-------3-|------5-------5-|------8-------8-|------7-------0-|
G|---0-------0-----|--0-------0-----|--0-------0-----|--0-------0-----|
D|-----------------|----------------|----------------|----------------|
A|-2---2---2---2---|3---3---3---3---|7---7---7---7---|5---5---5---0---|
E|-----------------|----------------|----------------|----------------|
   ^ ' ^ ' ^ ' ^ ' |^ ' ^ ' ^ ' ^ ' |^ ' ^ ' ^ ' ^ ' |^ ' ^ ' ^ ' ^ ' |
   1   2   3   4    1   2   3   4    1   2   3   4    1   2   3   4    
           we are the reckless we are the wild youth            chasing

e|-----------------|----------------|----------------|----------------|
B|-------3-------3-|------5-------5-|------8-------8-|------7-------0-|
G|---0-------0-----|--0-------0-----|--0-------0-----|--0-------0-----|
D|-----------------|----------------|----------------|----------------|
A|-2---2---2---2---|3---3---3---3---|7---7---7---7---|5---5---5---0---|
E|-----------------|----------------|----------------|----------------|
   ^ ' ^ ' ^ ' ^ ' |^ ' ^ ' ^ ' ^ ' |^ ' ^ ' ^ ' ^ ' |^ ' ^ ' ^ ' ^ ' |
   1   2   3   4    1   2   3   4    1   2   3   4    1   2   3   4    
   visions of our futures

e|-----------------|----------------|----------------|----------------|
B|-------3-------3-|------5-------5-|------8-------8-|------7-------0-|
G|---0-------0-----|--0-------0-----|--0-------0-----|--0-------0-----|
D|-----------------|----------------|----------------|----------------|
A|-2---2---2---2---|3---3---3---3---|7---7---7---7---|5---5---5---0---|
E|-----------------|----------------|----------------|----------------|
   ^ ' ^ ' ^ ' ^ ' |^ ' ^ ' ^ ' ^ ' |^ ' ^ ' ^ ' ^ ' |^ ' ^ ' ^ ' ^ ' |
   1   2   3   4    1   2   3   4    1   2   3   4    1   2   3   4    
   one day we'll reveal the truth                         that one will

e|-----------------|----------------|----------------|----------------|
B|-------3-------3-|------5-------5-|------8-------8-|------7-------0-|
G|---0-------0-----|--0-------0-----|--0-------0-----|--0-------0-----|
D|-----------------|----------------|----------------|----------------|
A|-2---2---2---2---|3---3---3---3---|7---7---7---7---|5---5---5---0---|
E|-----------------|----------------|----------------|----------------|
   ^ ' ^ ' ^ ' ^ ' |^ ' ^ ' ^ ' ^ ' |^ ' ^ ' ^ ' ^ ' |^ ' ^ ' ^ ' ^ ' |
   1   2   3   4    1   2   3   4    1   2   3   4    1   2   3   4    
   die before he gets there                                      and if


[Pre-Chorus 2]
e|-----------------|----------------|----------------|----------------|
B|-3---------------|5---------------|8---------------|7---------------|
G|-0---------------|0---------------|0---------------|0---------------|
D|-x---------------|x---------------|x---------------|x---------------|
A|-2---------------|3---------------|7---------------|5---------------|
E|-----------------|----------------|----------------|----------------|
   ^ ' ^ ' ^ ' ^ ' |^ ' ^ ' ^ ' ^ ' |^ ' ^ ' ^ ' ^ ' |^ ' ^ ' ^ ' ^ ' |
   1   2   3   4    1   2   3   4    1   2   3   4    1   2   3   4    
   you're still bleeding you're the lucky ones                    cause

e|-----------------|----------------|----------------|----------------|
B|-3---------------|5---------------|------8-------8-|------7-------0-|
G|-0---------------|0---------------|--0-------0-----|--0-------0-----|
D|-x---------------|x---------------|----------------|----------------|
A|-2---------------|3---------------|7---7---7---7---|5---5---5---0---|
E|-----------------|----------------|----------------|----------------|
   ^ ' ^ ' ^ ' ^ ' |^ ' ^ ' ^ ' ^ ' |^ ' ^ ' ^ ' ^ ' |^ ' ^ ' ^ ' ^ ' |
   1   2   3   4    1   2   3   4    1   2   3   4    1   2   3   4    
   most of our feelings they are dead and they are gone         setting

e|-----------------|----------------|----------------|----------------|
B|-------3-------3-|------5-------5-|------8-------8-|------7-------0-|
G|---0-------0-----|--0-------0-----|--0-------0-----|--0-------0-----|
D|-----------------|----------------|----------------|----------------|
A|-2---2---2---2---|3---3---3---3---|7---7---7---7---|5---5---5---0---|
E|-----------------|----------------|----------------|----------------|
   ^ ' ^ ' ^ ' ^ ' |^ ' ^ ' ^ ' ^ ' |^ ' ^ ' ^ ' ^ ' |^ ' ^ ' ^ ' ^ ' |
   1   2   3   4    1   2   3   4    1   2   3   4    1   2   3   4    
   fire to our insides for fun                               collecting

e|-----------------|----------------|----------------|----------------|
B|-------3-------3-|------5-------5-|------8-------8-|7---------------|
G|---0-------0-----|--0-------0-----|--0-------0-----|0---------------|
D|-----------------|----------------|----------------|x---------------|
A|-2---2---2---2---|3---3---3---3---|7---7---7---7---|5---------------|
E|-----------------|----------------|----------------|----------------|
   ^ ' ^ ' ^ ' ^ ' |^ ' ^ ' ^ ' ^ ' |^ ' ^ ' ^ ' ^ ' |^ ' ^ ' ^ ' ^ ' |
   1   2   3   4    1   2   3   4    1   2   3   4    1   2   3   4    
   pictures from a flood that wrecked our home it was a flood that wrecked this home


[Chorus 2]
e|-----------------|----------------|----------------|----------------|
B|-------8-------8-|------8-------3/|5-----5-------5-|------7-------7-|
G|---0-------0-----|--0-------0-----|--0-------0-----|--0-------0-----|
D|-----------------|----------------|----------------|----------------|
A|-7---7---7---7---|7---7---7---2---|3---3---3---3---|5---5---5---5---|
E|-----------------|----------------|----------------|----------------|
   ^ ' ^ ' ^ ' ^ ' |^ ' ^ ' ^ ' ^ ' |^ ' ^ ' ^ ' ^ ' |^ ' ^ ' ^ ' ^ ' |
   1   2   3   4    1   2   3   4    1   2   3   4    1   2   3   4    
                                                        and you caused it

e|-----------------|----------------|----------------|----------------|
B|-------8-------8-|------8-------3/|5-----5-------5-|------7-------7-|
G|---0-------0-----|--0-------0-----|--0-------0-----|--0-------0-----|
D|-----------------|----------------|----------------|----------------|
A|-7---7---7---7---|7---7---7---2---|3---3---3---3---|5---5---5---5---|
E|-----------------|----------------|----------------|----------------|
   ^ ' ^ ' ^ ' ^ ' |^ ' ^ ' ^ ' ^ ' |^ ' ^ ' ^ ' ^ ' |^ ' ^ ' ^ ' ^ ' |
   1   2   3   4    1   2   3   4    1   2   3   4    1   2   3   4    
                                                        and you caused it

e|-----------------|----------------|----------------|----------------|
B|-------8-------8-|------8-------3/|5-----5-------5-|------7-------7-|
G|---0-------0-----|--0-------0-----|--0-------0-----|--0-------0-----|
D|-----------------|----------------|----------------|----------------|
A|-7---7---7---7---|7---7---7---2---|3---3---3---3---|5---5---5---5---|
E|-----------------|----------------|----------------|----------------|
   ^ ' ^ ' ^ ' ^ ' |^ ' ^ ' ^ ' ^ ' |^ ' ^ ' ^ ' ^ ' |^ ' ^ ' ^ ' ^ ' |
   1   2   3   4    1   2   3   4    1   2   3   4    1   2   3   4    
                                                        and you caused it

e|-----------------|----------------|----------------|----------------|
B|-------8-------8-|------8-------3/|5-----5-------5-|------7-------7-|
G|---0-------0-----|--0-------0-----|--0-------0-----|--0-------0-----|
D|-----------------|----------------|----------------|----------------|
A|-7---7---7---7---|7---7---7---2---|3---3---3---3---|5---5---5---5---|
E|-----------------|----------------|----------------|----------------|
   ^ ' ^ ' ^ ' ^ ' |^ ' ^ ' ^ ' ^ ' |^ ' ^ ' ^ ' ^ ' |^ ' ^ ' ^ ' ^ ' |
   1   2   3   4    1   2   3   4    1   2   3   4    1   2   3   4    


[Verse 3]
e|-----------------|----------------|----------------|----------------|
B|-------3-------3-|------5-------5-|------8-------8-|------7-------0-|
G|---0-------0-----|--0-------0-----|--0-------0-----|--0-------0-----|
D|-----------------|----------------|----------------|----------------|
A|-2---2---2---2---|3---3---3---3---|7---7---7---7---|5---5---5---0---|
E|-----------------|----------------|----------------|----------------|
   ^ ' ^ ' ^ ' ^ ' |^ ' ^ ' ^ ' ^ ' |^ ' ^ ' ^ ' ^ ' |^ ' ^ ' ^ ' ^ ' |
   1   2   3   4    1   2   3   4    1   2   3   4    1   2   3   4    
   i've lost it all i'm just a silhouette

e|-----------------|----------------|----------------|----------------|
B|-------3-------3-|------5-------5-|------8-------8-|------7-------0-|
G|---0-------0-----|--0-------0-----|--0-------0-----|--0-------0-----|
D|-----------------|----------------|----------------|----------------|
A|-2---2---2---2---|3---3---3---3---|7---7---7---7---|5---5---5---0---|
E|-----------------|----------------|----------------|----------------|
   ^ ' ^ ' ^ ' ^ ' |^ ' ^ ' ^ ' ^ ' |^ ' ^ ' ^ ' ^ ' |^ ' ^ ' ^ ' ^ ' |
   1   2   3   4    1   2   3   4    1   2   3   4    1   2   3   4    
       i'm a lifeless face that you'll soon forget               and my

e|-----------------|----------------|----------------|----------------|
B|-------3-------3-|------5-------5-|------8-------8-|------7-------0-|
G|---0-------0-----|--0-------0-----|--0-------0-----|--0-------0-----|
D|-----------------|----------------|----------------|----------------|
A|-2---2---2---2---|3---3---3---3---|7---7---7---7---|5---5---5---0---|
E|-----------------|----------------|----------------|----------------|
   ^ ' ^ ' ^ ' ^ ' |^ ' ^ ' ^ ' ^ ' |^ ' ^ ' ^ ' ^ ' |^ ' ^ ' ^ ' ^ ' |
   1   2   3   4    1   2   3   4    1   2   3   4    1   2   3   4    
   eyes are damp from the words you left                        ringing

e|-----------------|----------------|----------------|----------------|
B|-------3-------3-|------5-------5-|------8-------8-|------7-------0-|
G|---0-------0-----|--0-------0-----|--0-------0-----|--0-------0-----|
D|-----------------|----------------|----------------|----------------|
A|-2---2---2---2---|3---3---3---3---|7---7---7---7---|5---5---5---0---|
E|-----------------|----------------|----------------|----------------|
   ^ ' ^ ' ^ ' ^ ' |^ ' ^ ' ^ ' ^ ' |^ ' ^ ' ^ ' ^ ' |^ ' ^ ' ^ ' ^ ' |
   1   2   3   4    1   2   3   4    1   2   3   4    1   2   3   4    
   in my head               when you broke my chest             ringing

e|-----------------|----------------|----------------|----------------|
B|-3---------------|5---------------|8---------------|7---------------|
G|-0---------------|0---------------|0---------------|0---------------|
D|-x---------------|x---------------|x---------------|x---------------|
A|-2---------------|3---------------|7---------------|5---------------|
E|-----------------|----------------|----------------|----------------|
   ^ ' ^ ' ^ ' ^ ' |^ ' ^ ' ^ ' ^ ' |^ ' ^ ' ^ ' ^ ' |^ ' ^ ' ^ ' ^ ' |
   1   2   3   4    1   2   3   4    1   2   3   4    1   2   3   4    
   in my head               when you broke my chest              and if


[Pre-Chorus 3]
e|-----------------|----------------|----------------|----------------|
B|-3---------------|5---------------|8---------------|7---------------|
G|-0---------------|0---------------|0---------------|0---------------|
D|-x---------------|x---------------|x---------------|x---------------|
A|-2---------------|3---------------|7---------------|5---------------|
E|-----------------|----------------|----------------|----------------|
   ^ ' ^ ' ^ ' ^ ' |^ ' ^ ' ^ ' ^ ' |^ ' ^ ' ^ ' ^ ' |^ ' ^ ' ^ ' ^ ' |
   1   2   3   4    1   2   3   4    1   2   3   4    1   2   3   4    
   you're in love then you are the lucky one                      cause

e|-----------------|----------------|----------------|----------------|
B|-3---------------|5---------------|------8-------8-|------7-------7-|
G|-0---------------|0---------------|--0-------0-----|--0-------0-----|
D|-x---------------|x---------------|----------------|----------------|
A|-2---------------|3---------------|7---7---7---7---|5---5---5---5---|
E|-----------------|----------------|----------------|----------------|
   ^ ' ^ ' ^ ' ^ ' |^ ' ^ ' ^ ' ^ ' |^ ' ^ ' ^ ' ^ ' |^ ' ^ ' ^ ' ^ ' |
   1   2   3   4    1   2   3   4    1   2   3   4    1   2   3   4    
   most of us are bitter over someone                           setting

e|-----------------|----------------|----------------|----------------|
B|-------3-------3-|------5-------5-|------8-------8-|------7-------7-|
G|---0-------0-----|--0-------0-----|--0-------0-----|--0-------0-----|
D|-----------------|----------------|----------------|----------------|
A|-2---2---2---2---|3---3---3---3---|7---7---7---7---|5---5---5---5---|
E|-----------------|----------------|----------------|----------------|
   ^ ' ^ ' ^ ' ^ ' |^ ' ^ ' ^ ' ^ ' |^ ' ^ ' ^ ' ^ ' |^ ' ^ ' ^ ' ^ ' |
   1   2   3   4    1   2   3   4    1   2   3   4    1   2   3   4    
   fire to our insides for fun                                       to

e|-----------------|----------------|----------------|----------------|
B|-------3-------3-|------5-------5-|------8-------8-|7---------------|
G|---0-------0-----|--0-------0-----|--0-------0-----|0---------------|
D|-----------------|----------------|----------------|x---------------|
A|-2---2---2---2---|3---3---3---3---|7---7---7---7---|5---------------|
E|-----------------|----------------|----------------|----------------|
   ^ ' ^ ' ^ ' ^ ' |^ ' ^ ' ^ ' ^ ' |^ ' ^ ' ^ ' ^ ' |^ ' ^ ' ^ ' ^ ' |
   1   2   3   4    1   2   3   4    1   2   3   4    1   2   3   4    
distract our hearts from ever missing them but i'm forever missing him


[Chorus 3]
e|-----------------|----------------|----------------|----------------|
B|-------8-------8-|------8-------3/|5-----5-------5-|------7-------7-|
G|---0-------0-----|--0-------0-----|--0-------0-----|--0-------0-----|
D|-----------------|----------------|----------------|----------------|
A|-7---7---7---7---|7---7---7---2---|3---3---3---3---|5---5---5---5---|
E|-----------------|----------------|----------------|----------------|
   ^ ' ^ ' ^ ' ^ ' |^ ' ^ ' ^ ' ^ ' |^ ' ^ ' ^ ' ^ ' |^ ' ^ ' ^ ' ^ ' |
   1   2   3   4    1   2   3   4    1   2   3   4    1   2   3   4    
                                                        and you caused it

e|-----------------|----------------|----------------|----------------|
B|-------8-------8-|------8-------3/|5-----5-------5-|------7-------7-|
G|---0-------0-----|--0-------0-----|--0-------0-----|--0-------0-----|
D|-----------------|----------------|----------------|----------------|
A|-7---7---7---7---|7---7---7---2---|3---3---3---3---|5---5---5---5---|
E|-----------------|----------------|----------------|----------------|
   ^ ' ^ ' ^ ' ^ ' |^ ' ^ ' ^ ' ^ ' |^ ' ^ ' ^ ' ^ ' |^ ' ^ ' ^ ' ^ ' |
   1   2   3   4    1   2   3   4    1   2   3   4    1   2   3   4    
                                                        and you caused it

e|-----------------|----------------|----------------|----------------|
B|-------8-------8-|------8-------3/|5-----5-------5-|------7-------7-|
G|---0-------0-----|--0-------0-----|--0-------0-----|--0-------0-----|
D|-----------------|----------------|----------------|----------------|
A|-7---7---7---7---|7---7---7---2---|3---3---3---3---|5---5---5---5---|
E|-----------------|----------------|----------------|----------------|
   ^ ' ^ ' ^ ' ^ ' |^ ' ^ ' ^ ' ^ ' |^ ' ^ ' ^ ' ^ ' |^ ' ^ ' ^ ' ^ ' |
   1   2   3   4    1   2   3   4    1   2   3   4    1   2   3   4    
                                                        and you caused it

e|-----------------|----------------|----------------|----------------|----------------|
B|-------8-------8-|------8-------3/|5-----5-------5-|------7-------7-|----------------|
G|---0-------0-----|--0-------0-----|--0-------0-----|--0-------0-----|----------------|
D|-----------------|----------------|----------------|----------------|----------------|
A|-7---7---7---7---|7---7---7---2---|3---3---3---3---|5---5---5---5---|h7--------------|
E|-----------------|----------------|----------------|----------------|----------------|
   ^ ' ^ ' ^ ' ^ ' |^ ' ^ ' ^ ' ^ ' |^ ' ^ ' ^ ' ^ ' |^ ' ^ ' ^ ' ^ ' |^ ' ^ ' ^ ' ^ ' |
   1   2   3   4    1   2   3   4    1   2   3   4    1   2   3   4    1   2   3   4    


***********************************

| x   deadnote
| /   slideup

***********************************
Suggest correction
Give kudos to tab author, rate the tab!
1 2 3 4 5
comments
print report bad tab
guest
You may want to rate the tab now too:
select rating
Wanna post a correction for this tab? Suggest correction