Oops, an error
Loading. Please wait.

Fur Beach tab

19 views 3 this week
no commentswrite comment
1 2 3 4 5
3 more votes to show rating
add to favorites
×
Save as Personal and add changes to this tab that will be seen only by you. Learn more ›
×
You can save this tab as Personal to edit and correct it or add notes. All changes will be seen only by you. Learn more »
launch autoscroll
font size
0
reset
how to read this tab
guitar tuner
edit
Autoscroll
slow
fast
+/-
esc
set tempo
stop
About this tab version
Pretty sure this is the first tab of this song. Was this info helpful? Yes No
Fur Beach off of Daughter's 2003 debut album, Canada Songs. Enjoy!

Intro:
e|-----------------------------------------|          
B|-----------------------------------------|          
G|--3------------------------------------9-|          
D|--2----slide while trem picking to-----8-| (x2 )      
A|--1---------------------------------=--7-|          
E|-----------------------------------------|       

The right channel does this...
e|--------------|
B|--------14----|
G|--------18----| x8
D|--------------|
A|--------------|
E|--------------|

While the left does this, starting on the sixth hit
e|--------------|
B|---------15---|
G|---------19---| x3
D|--------------| 
A|--------------|
E|--------------|

I'll call this part the verse to make things easier:
e|----------------|
B|----------------|
G|----------------|
D|---3-3-3-3-3-3--| x2
A|---2-2-2-2-2-2--|
E|---1-1-1-1-1-1--|

0:10, the left channel, ping pong back 'n forth
e|----------|
B|----15----|
G|----------| x8
D|----------|
A|----------|
E|----------|

0:10, the right channel, ping pong back 'n forth
e|----------|
B|----------|
G|---18-----| x8
D|----------|
A|----------|
E|----------|

0:13, the left channel(tremolo pick)
e|-------------------------------------------------------|
B|-------------------------------------------------------|
G|--9-9-9-9-9-9-9-9-9--12-12-12-13-13-13-14-14-14--------| x4
D|-------------------------------------------------------|
A|-------------------------------------------------------|
E|-------------------------------------------------------|

0:13, the right channel(tremolo pick)
e|--------------|
B|--------------|
G|---9-10-11-12-|
D|---8-9--10-11-| x4
A|--------------|
E|--------------|

0:19, the left channel:
e|----18-----------------21---|
B|----17----slide to-----20---|
G|----------------------------| x8
D|----------------------------|
A|----------------------------|
E|----------------------------| 

0:19, the right channel(trem pick the first chord three times, slide and pick the last chord once)
e|--------------------|
B|--------------------|
G|---3-3-3---------9--|
D|---2-2-2---------8--| x8
A|--------------------|
E|--------------------|

0:26, the left channel:
e|-------|
B|-------|
G|---2---|
D|---1---| x13
A|---0---|
E|-------|

0:26, the right channel:
e|---------------------|
B|---3-3------------6--|
G|---7-7--slide to--9--|
D|---------------------| x4
A|---------------------|
E|---------------------|

And finally, 

0:31 left channel: 
e|------------------------|
B|------5--8--9--9--------|
G|------8--11-12-12-------|
D|------------------------|
A|------------------------|
E|------------------------|

0:31 right channel (tremolo pick every chord really violently):
e|-----------------------------------------------|
B|-----------------------------------------------|
G|-----7----------------14-15-16-17-18-19-20-21--|
D|-----6----slide to----13-14-15-16-17-18-19-20--|
A|-----5----------------12-13-14-15-16-17-18-19--|
E|-----------------------------------------------|
Suggest correction
Creating personal tab
Creating personal tab
You can edit any tab online and save it as your Personal.

You can edit, replace or remove any tab part or add personal notes – all changes will be seen only by you.

Personal tabs can be accessed anytime from any device, even offline.
Learn more »
Give kudos to tab author, rate the tab!
1 2 3 4 5
comments
print report bad tab
guest
You may want to rate the tab now too:
select rating
Wanna post a correction for this tab? Suggest correction