Oops, an error
Loading. Please wait.
We have Chord Pro version of Over You.
It's the closest thing you can get to the original song and it has interactive parts. Check out the tab »
×
7,527 views 1 this week
1 commentread comment
1 2 3 4 5
1 last vote to show rating
add to favorites
×
Save as Personal and add changes to this tab that will be seen only by you. Learn more ›
×
You can save this tab as Personal to edit and correct it or add notes. All changes will be seen only by you. Learn more »
launch autoscroll
font size
0
reset
how to read this tab
guitar tuner
edit
Autoscroll
slow
fast
+/-
esc
set tempo
stop
                        Daughtry - Over You

Album: Daughtry
Tuning: 1/2 step down

Intro/Verse(acoustic):

     E   B  C#m B   A
Eb|--0-|-0-|-0--0-|-0--|
Bb|--0-|-4-|-5--4-|-2--|
Gb|--1-|-4-|-6--4-|-2--|
Db|--2-|-4-|-6--2-|-2--|    2X   enjoy the rhythm
Ab|--2-|-2-|-4--2—|-0--|
Eb|--0-|-2-|----2-|----|

Pre Chorus (in the middle of the verse after the second "B"- chord):

           F#5            A5        B5
Eb|-------------------|----------|------|
Bb|-------------------|----------|------|
Gb|-------------------|-22222222-|-444--|
Db|--4444444444444444-|-22222222-|-444--|
Ab|--4444444444444444-|-00000000-|-222--|
Eb|--2222222222222222-|----------|------|
     ................   ........

Chorus:

1st part
Eb|------------------|-----------------|-----------------|---------|
Bb|------------------|-----------------|-----------------|---------|
Gb|------------------|4444444444444444-|-6666666644444444|222222-4~|
Db|--2222222222222222|4444444444444444-|-6666666644444444|222222-2~|
Ab|--2222222222222222|2222222222222222-|-4444444422222222|000000-2~|
Eb|--0000000000000000|-----------------|-----------------|---------|


Eb|------------------|-----------------|-----------------|---------|
Bb|------------------|-----------------|-----------------|---------|
Gb|------------------|4444444444444444-|-6666666644444444|222222-4~|
Db|--2222222222222222|4444444444444444-|-6666666644444444|222222-2~|
Ab|--2222222222222222|2222222222222222-|-4444444422222222|000000-2~|
Eb|--0000000000000000|-----------------|-----------------|---------|

2nd part
Eb|-----------------|-----------------------|
Bb|-----------------|-----------------------|
Gb|-----------------|2-2-2-2-4~-------------|
Db|--4-4-4-4-4-4-4-4|2-2-2-2-4~--Slide down-|
Ab|--4-4-4-4-4-4-4-4|0-0-0-0-2~-------------|
Eb|--2-2-2-2-2-2-2-2|-----------------------|

Solo:

Eb|------------------------------------------------------------|
Bb|------------------------------------------------------------|
Gb|-14--13--9---14--13--9--11--13---12--11--9--11~---9--7--4~--|
Db|--x---x--x----x---x--x---x---x----x---x--x---x----x--x--x~--|
Ab|-12--11--7---12--11--7---9--11---10---9--7---9~---7--5--2~--|
Eb|------------------------------------------------------------|


Guitar 2 (during the solo)
Eb|-------------------------------------------|
Bb|-------------------------------------------|
Gb|--------------------5-5-5~--2~-2-2---------|
Db|--2-2-2-2-2-2-2-2---5-5-5~--2~-2-2--(2~)---|
Ab|--2-2-2-2-2-2-2-2---3-3-3~--0~-0-0--(2~)---|
Eb|--0-0-0-0-0-0-0-0-------------------(0~)---|

Play Verse

during verse Guitar 2:

Doin' some flageolets (°)

Eb|----12~---------------------|
Bb|-------12~--7~--12~---------|
Gb|----------------------------|
Db|----------------------------|
Ab|----------------------------|
Eb|----------------------------|
       °  °    °   °


Prechorus

Chorus

Solo 2:

1st part:

Eb|------------------------------------------------------------|
Bb|------------------------------------------------------------|
Gb|-14--13--9---14--13--9--11--13---12~---12--16--14~--12--11~-|
Db|--x---x--x----x---x--x---x---x----x-----x---x---x----x---x--|
Ab|-12--11--7---12--11--7---9--11---10~---10--14--12~--10---9~-|
Eb|------------------------------------------------------------|

2nd part:
                                \take care of/
                                 \the rythm!/
                                 .\......./
Eb|--------------------------------------------------------------|
Bb|-----17-------17----17b18rb17------17-----17----17b18rb17-----|
Gb|-15--------15-----15------------14-----14---14------------13~~|
Db|--------------------------------------------------------------|
Ab|--------------------------------------------------------------|
Eb|--------------------------------------------------------------|

Chorus:

e-guitar starts when Chris sings "more than you, more than you..." with short chords:


Eb|------------------------------------|
Bb|------------------------------------|
Gb|--2--------------2-------------4~---|
Db|--2--------------2-------------4~---|
Ab|--0--------------0-------------2~---|
Eb|------------------------------------|
    more than you, more than you know

Prechorus

Chorus without 2nd part

Ending: whole chorus


I hope it's good enough for xou


greez..... Danny

            
            
Suggest correction
Creating personal tab
Creating personal tab
You can edit any tab online and save it as your Personal.

You can edit, replace or remove any tab part or add personal notes – all changes will be seen only by you.

Personal tabs can be accessed anytime from any device, even offline.
Learn more »
Give kudos to tab author, rate the tab!
1 2 3 4 5
comments
print report bad tab
1 comment total.
0 reply
kaulthelegend 162 Feb 16, 2010 04:00 PM

Close Dude Close ( i got a daughtry tab book and your so close )

guest
Wanna post a correction for this tab? Suggest correction