Oops, an error
Loading. Please wait.

Loving You Loving Me tab

version 2
version 2

Whole song

6,301 views 27 this week
no commentswrite comment
1 2 3 4 5
2 more votes to show rating
add to favorites
×
Save as Personal and add changes to this tab that will be seen only by you. Learn more ›
×
You can save this tab as Personal to edit and correct it or add notes. All changes will be seen only by you. Learn more »
launch autoscroll
font size
0
reset
how to read this tab
guitar tuner
edit
Autoscroll
slow
fast
+/-
esc
set tempo
stop
Dave Barnes – Loving You, Loving Me
Tab by JS (thanks to Joe Huras for a good start)

CAPO ON THE FIRST FRET
Song Relative to capo

Main riff                         Solo Part
e|----0----4----2----------------------------------------------------------|
B|----0----4----2---4----------4-------------------------------------------|
G|----1----4----2---4h6---4/1--4h6---4------------------4------------------|
D|----2----4----2-----------------------6/4~-----2--4/6---6/4-2------------|
A|----2----6----4-----------------------------------------------4-2--------|
E|----0----4----2---------------------------------------------------4-0----|
        
Pre-Chorus
      D	   A	 F    D	   A	 B9 (let ring)
e|----3---------0----3--------------0-------|
B|----2----2----0----2----2--------2--/4----|
G|----3----2----1----3----2-------2---------| 
D|----0----2----2----0----2------1----------|
A|---------0----2---------0-----2-----------|
E|--------------0---------------------------|

Chorus							    (on the up beats)
e|----0----4----2----------------------------------------------------------|
B|----0----4----2--------------5--------4--------2--------4-----2--4--5----|
G|----1----4----2--(x2)--------6--------4--------2--------4-----2--4--6----| 
D|----2----4----2------------7---7----4---4----2---2----4---4---2--4--7----|
A|----2----6----4----------------------------------------------------(7)---|
E|----0----4----2----------5--------4--------2--------4---------2--4--5----|

Bridge 
e|----4----4---------|
B|----4----5---------|
G|----4----4---------|    (2x)
D|----4----6---------|
A|----6----4---------|
E|----4--------------|


Lyrics

Verse 1:
It’s just me and you and the moonlight baby 
I’m staring at you staring at the stars tonight 
The sun that fought so hard is now disappeared and you and I can start this evening right 

Pre-Chorus:
What I say out loud is only half of what’s in my head 
Tonight I would rather look at you instead 

Chorus
I can’t get enough of you, everything little thing you do 
You, the night, and this candlelight is all I really need 
It’s loving you loving me 

Verse 2:
Dogs are barking in the yard a few feet away and TV in the den is on CNN 
Seemed to me these clouds were showing rain but nothing can change this mood I’m in 

Pre-Chorus
What I say out loud is only half of what’s in my head 
Tonight I'd rather look at you instead 

Chorus:
I can’t get enough of you 
And every little thing you do 
You the night and this candlelight is all I really need 
Loving you loving me 

Bridge:
I’ve been all day waiting for you to come back home now I appreciate that will never be alone baby 

(Solo over Chorus chords)

Pre-Chorus:
What I say out loud is only half of what’s in my head 
Tonight I’d rather look at you instead 

Chorus:
And I can’t get enough of you 
And every little thing you do 
(rpt.1) 
You the night and this candlelight is all i really need 
Loving you loving me 
Loving you loving me 
Loving you loving me 
Let’s get together and start a family 
Loving you loving me ba-ba-baby 
Loving you loving me baby you know I’m never gonna go away 
Loving you oh loving me oh baby

            
            
Suggest correction
Creating personal tab
Creating personal tab
You can edit any tab online and save it as your Personal.

You can edit, replace or remove any tab part or add personal notes – all changes will be seen only by you.

Personal tabs can be accessed anytime from any device, even offline.
Learn more »
Give kudos to tab author, rate the tab!
1 2 3 4 5
comments
print report bad tab
guest
You may want to rate the tab now too:
select rating
Wanna post a correction for this tab? Suggest correction