Oops, an error
Loading. Please wait.

On A Night Like This Tab

version 1
version 1

Whole song

Interactive

21,051 views 3 this week
no commentswrite comment
1 2 3 4 5
please rate
add to favorites
launch autoscroll
font size
0
reset
how to read this tab
guitar tuner
Tab Pro tools
  • play this tab
  • loop segment
  • change instrument
  • show fretboard
  • metronome
×
Best way to learn
"On A Night Like This"
Autoscroll
slow
fast
+/-
esc
set tempo
stop
Contributor
Dave Barnes - On A Night Like This
Transcribed from a live show in East Lansing (Oct. 2, 2004)
Standard Tuning; down one half step


Intro:

Eb---------------------------------------------------------------5---------------3-----------|
Bb------5-----------------0---------3-----------------0h1-1/0--3---3-------------------------|
Gb--4/7-----7---4-4-------0---0-2/0------------------------------------4-----4-5---5---4-----|
Db--------5---5-----5---5-----------------------------0h1-----0------0---5-----------5---5---|
Ab--2/5-3---7-------------------------------5h7/5---5----------------------5---3-----------3-|
Eb----------------3---3-----0---2-----3-5-7-------7--------------------3---------------3-----|


On a night like this, I could fall in love
In this dark so dense, we talk so soft
|--------------------------------------------|
|------5-----------------------------3-------|
|--4/7-----7---4-4-------0---2---4---------4-|
|--------5---5-----5---5---2---0---5-----5---|
|--2/5-3---7---------------------------------|
|----------------3---3---0---2---3-----3-----|


I could fall in love with you
The way young lovers do
|---------------------------------------------|
|--------1-----------3-----5---5-3------------|
|--0-------0---2-------2--------------4-4-----|
|----2-------2---0-------0-5-5---4-4------5---|
|--0---0-------0---0--------------------------|
|---------------------------------------3---3-|


Day's last sight turns to cool night's breeze
|------3------------------------------|
|----0--------------------------------|
|----------0----------------------4---|
|-------------------------------4-----|
|--------------------2---2---2------2-|
|--0-----0---0---0--------------------|


And this love hangs thick like these willow leaves
|----------------------------------|
|----------------------------------|
|----------------------------------|
|--0---0---0---0-------------2---2-|
|------------------4---4---4---4---|
|----------------------------------|


I hid myself away from this
|----------------------------------------------------------------|
|----------------------------------------0-------0---------------|
|--------5-------5-------5-------5-----0-------0-------0-------0-|
|------5-------5-------5-------5---------------------------------|
|--3-------3-------3-------3-------2-------2-------2-------2-----|
|----------------------------------------------------------------|


It's a silhouette, it's a Judas kiss
|------------------------------------------------------------5-------------5-----------|
|--------------------------------------------------------------------------------------|
|--------5-------5-------5-------5-------7-------7---------------7-------------7-------|
|------5-------5-------5-------5-------7-------7-------7-------7-------7-----7-------7-|
|--3-------3-------4-------4-------5-------5-------5-------5-------5-----5-------5-----|
|--------------------------------------------------------------------------------------|


*Repeat Intro*


On a night like this, I could fall in love
|--------------------------------------------|
|------5-----------------------------3-------|
|--4/7-----7---4-4-------0---2---4---------4-|
|--------5---5-----5---5---2---0---5-----5---|
|--2/5-3---7---------------------------------|
|----------------3---3---0---2---3-----3-----|


I could fall in love with you
|---------------------------------------------|
|--------1-----------3-----5---5-3------------|
|--0-------0---2-------2--------------4-4-----|
|----2-------2---0-------0-5-5---4-4----------|
|--0---0-------0---0--------------------------|
|---------------------------------------3-----|
comments
We did not receive enough feedback on this tab! Please rate:
print report bad tab
1 2 3 4 5
I want to post or [tab]
guest
You may want to rate the tab now too:
select rating
Please do not post tabs as comments. Select "correction" instead!