Oops, an error
Loading. Please wait.

I Just Held Hands Tab

version 1
version 1

Solo

Interactive

4,523 views 1 this week
3 commentsread comments
1 2 3 4 5
1 last vote to show rating
add to favorites
launch autoscroll
font size
0
reset
how to read this tab
guitar tuner
Autoscroll
slow
fast
+/-
esc
set tempo
stop
Help us to improve Ultimate-Guitar.com Take our survey!
×
Author
Difficulty
intermediate
                        I Just Held Hands                                


                           Dave Days
Track 2
View with video in case you have any questions.
This tab is correct, so says the guy who wrote the solo (me.)

Dave Days' Solo (Song Melody)

     H        S S S S S S S S    E  Q    H         E   
E||---------------------------|-----------------------|
B||-------------7-7-7-7-5-5-7-|--7--3----3~-----------|
G||---------------------------|--------------------2--|
D||---------------------------|-----------------------|
A||---------------------------|-----------------------|
E||---------------------------|-----------------------|
 
 
             PH                                           
  E  E  E    Q    E  E  E     S S E  E  S S S S E  E  E   
---------------------------|-----------------------------|
--3--5--7--<>5----2--2--2--|--2-3-3--3--3-2-2-3-3--3--5--|
---------------------------|-----------------------------|
---------------------------|-----------------------------|
---------------------------|-----------------------------|
---------------------------|-----------------------------|
                  
                     Dave Kirsh's Solo (pickup note)
    PH                                                                    
    Q.      H         S  S     E   E    E    S  E    S  S   S  E    S S   
----------------------------|--------------------------------------------|
--<>7b------5~--------L-10--|--L--10---10------10---10-10--10-10---------|
-------------------------9b-|--L---9b---9br--7--9b------9b-----9br--7-9b-|
----------------------------|--------------------------------------------|
----------------------------|--------------------------------------------|
----------------------------|--------------------------------------------|
 
 
  S  S  T T T T T T T T T T T T T T T T T T T T E.    S   
-----------------------------------------------------17--|
-----------------------------------------------------17b-|
--Lb-9b-9-7---9-7---7------------------------------------|
------------9-----9---7-9-7---9-7---7--------------------|
----------------------------9-----9---5-7-5-7-9-5~-------|
---------------------------------------------------------|
 
 
   S  S  S   S  E     S  E    S  S   S  E     S  S  
---L-17-----17----------17---17-17--17-17----------|
---L--L-17b--L-17br--15-17b-----17b----17br--15-14-|
---------------------------------------------------|
---------------------------------------------------|
---------------------------------------------------|
---------------------------------------------------|
 
 
                              W                      
      |--3--|                                        
   S  S  S  S  S  S  S  S  S  H                      
---------------------------------------|-----|-----||
---L-15-14----15-14----14--------------|-----|-----||
-----------16-------16----16-14--------|-----|-----||
---------------------------------------|-----|-----||
---------------------------------------|-----|-----||
---------------------------------------|-----|-----||
 
 
 
 
Duration Legend
---------------
W - whole
H - half
Q - quarter
E - 8th
S - 16th
T - 32nd
X - 64th
. - note dotted
|-n-|  - n-tuplets
 
 
Tablature Legend
----------------
L - tied note
x - dead note
g - grace note
(n) - ghost note
> - accentuded note
NH - natural harmonic
AH - artificial harmonic
TH - tapped harmonic
SH - semi harmonic
PH - pitch harmonic
h - hammer on
p - pull off
b - bend
br - bendRelease
pb - preBend
pbr - preBendRelease
brb - bendReleaseBend
\n/ - tremolo bar dip
\n - tremolo bar dive
-/n - tremolo bar Release up
/n\ - tremolo bar inverted dip
/n - tremolo bar return
-\n - tremolo bar Release down
S - shift slide
s - legato slide
/ -  slide into from below or out of upwards
\ -  slide into from above or out of downwards
~ - vibrato
W - wide vibrato
tr - tril'
TP - tremolo picking
T - tapping
S - slap
P - pop
< - fade in
^ - brush up
v - brush down
Suggest correction
Give kudos to tab author, rate the tab!
1 2 3 4 5
comments
print report bad tab
3 comments total.
+4 reply
z00lander 10 Apr 03, 2011 10:09 PM

It would be sweet to have the whole song tabbed or even if you could pm me the chord progression. I thought this song was awesome.

0 reply
alfguitar992 20 Jun 10, 2011 11:30 AM

i agree. i freakin love this song and would love a tab for it

0 reply
MacAttic 80 Jun 20, 2011 02:08 PM

could you please tab the whole song? it would be great if you do it ;)

guest
You may want to rate the tab now too:
select rating
Wanna post a correction for this tab? Suggest correction