Oops, an error
Loading. Please wait.

Olive You tab

version 3
version 3

Interactive

2,112 views 1 this week
no commentswrite comment
1 2 3 4 5
3 more votes to show rating
add to favorites
×
Save as Personal and add changes to this tab that will be seen only by you. Learn more ›
×
You can save this tab as Personal to edit and correct it or add notes. All changes will be seen only by you. Learn more »
launch autoscroll
font size
0
reset
how to read this tab
guitar tuner
edit
Autoscroll
slow
fast
+/-
esc
set tempo
stop
Author
First tab so be nice and done by ear and watching his video

Great song :)

Intro rift
Can't get the words out of my mouth....
E|--------------------------------------------------------|
B|--------------------------------------------------------|
G|-----1-----1-----1-----1-----6-----6-----4-----4/6------|
D|--------------------------------------------------------|
A|--2--2--2--2--2--2--2--2--4--4--4--4--2--2--2--2/4------|
E|--------------------------------------------------------|

Chorus
Olive you and everything you do
E|--------------------------------------------------------|
B|---2---2---4---4---6---6---9---9------------------------|
G|---2---2---4---4---5---5---9---9------------------------|
D|--------------------------------------------------------|
A|-0---0---2---2---4---4---7---7--------------------------|
E|--------------------------------------------------------|

Outro of Chorus thing??
I don't know what to say but olive you
E|--------------------------------------------------------|
B|---2---2---2---2---4---4---4---4------------------------|
G|---2---2---2---2---4---4---4---4------------------------|
D|--------------------------------------------------------|
A|-0---0---0---0---2---2---2---2--------------------------|
E|--------------------------------------------------------|

Repeat all again


Can't fight the feeling I feel inside
I try to tell you but I always hide
The things you say like I want you to stay right
Here by my side and let the words slide

Olive you and the little things you do
What two words can mean afraid to say the other three
Olive you the words are coming true
I don't know what to say but olive you

You wanna tell me but I don't know how to say it
I'll let it out what's been on my mind
Those two words need an I love...

I love you and everything you do
These two words mean what I meant to say with three
I love you never felt so smooth
All I can say is I love you

            
            
Suggest correction
Creating personal tab
Creating personal tab
You can edit any tab online and save it as your Personal.

You can edit, replace or remove any tab part or add personal notes – all changes will be seen only by you.

Personal tabs can be accessed anytime from any device, even offline.
Learn more »
Give kudos to tab author, rate the tab!
1 2 3 4 5
comments
print report bad tab
guest
You may want to rate the tab now too:
select rating
Wanna post a correction for this tab? Suggest correction