Oops, an error
Loading. Please wait.

Olive You Tab

version 5
version 5

Interactive

2,917 views 1 this week
no commentswrite comment
1 2 3 4 5
excellent!
x 3
add to favorites
launch autoscroll
font size
0
reset
how to read this tab
guitar tuner
Autoscroll
slow
fast
+/-
esc
set tempo
stop
Help us to improve Ultimate-Guitar.com Take our survey!
×
Author
Hi guys! i really like this song, so i tabbed the tutorial that dave made at youtube. 
watch it: http://www.youtube.com/watch?v=bNKn70PDq8Y
Just refer here if you had some confusions about dave`s tutorial ..
Anyway this is for the one`s who can`t catch up with dave`s tutioral or the one`s who 
want to learn this song and haven`t seen dave`s tutorial.
this is 100% ACCURATE!
So i hope you will find it easy to learn dave`s OLIVE YOU song!

add me at facebook: ravelasco_1092@yahoo.com ...\m/keep rockin guys!\m/

Tuning: Standard
tabbed by:Rophael Velasco

Intro:
E------------------------------------------|
B---0----------0---------0----          -0-|
G---1----------6---------4---- slide to -6-|
D-----(x4)-------(x2)-----(x2)-------------|
A------------4---------2-------------------|
E-0----------------------------------------|
(note after you go and play it again, start by plucking together the 1st fret on the G 
string and the open B. then continue)

Verse I: Dave

Can't get the words, out of my mouth

That little feeling everyone talks about

The things you say like, "I miss your face" I

wanna let you know, but I can't get the words to go


Chorus: Dave
E-----------------------------------------|
B---2---------4---------5---------0-------|
G---2---------4---------6---------1-------|
D-----(x2)------(x2)------(x2)------(x2)--|
A-0---------2---------4-------------------|
E-------------------------------0---------|

So olive you

And everything you do

E-----------------------------------------|
B---2---------4---------5---------9-------|
G---2---------4---------6---------9-------|
D-----(x2)------(x2)------(x2)------(x2)--|
A-0---------2---------4---------7---------|
E-----------------------------------------|

What two words can mean

Afraid to say the other three

E-------------------------------------------------|
B---2---------4---------5---------0---------2-----|
G---2---------4---------6---------1---------2-----|
D-----(x2)------(x2)------(x2)------(x2)------(x2)|
A-0---------2---------4-------------------0-------|
E-------------------------------0-----------------|

Olive you

The words are coming true

E-----------------------------------------|
B---0---------4---------5----4-----0------|
G---1---------4---------6----4-----1------|
D-----(x2)------(x2)----------------(x4)--|
A----------2---------4-----2--------------|
E-0------------------------------0--------|

I don't know what to say

But olive you...


Verse II: Kimmi
E------------------------------------------|
B---0----------0---------0----          -0-|
G---1----------6---------4---- slide to -6-|
D-----(x4)-------(x2)-----(x2)-------------|
A------------4---------2-------------------|
E-0----------------------------------------|

Can't fight the feeling, I feel inside

I try to tell you, but I always hide

The things you say like, "Want you to stay right here by my side"

Let the words slide


Chorus: Kimmi

(same tab as the chorus)

Olive you

And the little things you do

What two words can mean

Afraid to say the other three

Olive you

The words are coming true

I don't know what to say


E------------------------------------------|
B---0----------0---------0----          -0-|
G---1----------6---------4---- slide to -6-|
D-----(x4)-------(x2)-----(x2)-------------|
A------------4---------2-------------------|
E-0----------------------------------------|

But olive you, Olive You, Olive You, Olive you  (X4)


Bridge: kimmi and dave

E----------------------|
B----------------------|
G---2----------2-------|
D-----(x4)-------(x4)--|
A------------0---------|
E-2--------------------|

You, you, you wanna tell me

E---------------0-----------|
B-----------------------4---|
G---2---------6---6---4---4-|
D-----(x4)------------------|
A-----------4-------2-------|
E-2-------------------------|

But I, I, I, I don't know how to say it

E-----0----------|
B----------------|
G---1---1-(x2)---|
D----------------|
A----------------|
E-0--------------|

I'll let it out

E----------------|
B-----4----------|
G---4---4-(x2)---|
D----------------|
A-2--------------|
E----------------|

It's been on my mind

E------------------------------|
B-----5-------------2-----4----|
G---6---6-(x2)----2-----4---4--|
D------------------------------|
A-4-------------0-----2--------|
E------------------------------|

Those two words mean an "I love"


Chorus: kimmi and dave
(same tab as the chorus)

I love you

And everything you do

These two words mean

What I meant to say was

I love you

It never felt so smooth

All I can say..




E------------------------------------------|
B---0----------0---------0----          -0-|
G---1----------6---------4---- slide to -6-|
D-----(x4)-------(x2)-----(x2)-------------|
A------------4---------2-------------------|
E-0----------------------------------------|


is I love you... I love you ...I love you

Olive You, Olive You, olive you (4x)


  outro:

  E|--------------------------------|
  B|--9--9---7--7---9--9---12--12---|
  G|---9--9---9--9---9--9----9------| (x2)
  D|--------------------------------|
  A|--------------------------------|
  E|--------------------------------|


hope my tabs helped you guys. add me at facebook ravelasco_1092yahoo.com
Suggest correction
What's this?
You can suggest a correction to this tab. Community and Mods will review your correction and vote to approve or reject it.
comments
We did not receive enough feedback on this tab! Please rate:
print report bad tab
1 2 3 4 5
guest
You may want to rate the tab now too:
select rating
Please do not post tabs as comments. Select "correction" instead!