Oops, an error
Loading. Please wait.

Hold Tight bass

version 3
version 3

Whole song

754 views 1 this week
no commentswrite comment
1 2 3 4 5
3 more votes to show rating
add to favorites
×
Save as Personal and add changes to this tab that will be seen only by you. Learn more ›
×
You can save this tab as Personal to edit and correct it or add notes. All changes will be seen only by you. Learn more »
launch autoscroll
font size
0
reset
guitar tuner
edit
Autoscroll
slow
fast
+/-
esc
set tempo
stop
Author
Hold Tight
Dave Dee, Dozy, Beaky, Mick and Tich
Written by Ken Howard and Alan Blaikley; released as a single with "You Know 
What I Want" as the B-side, and on the album "Dave Dee, Dozy, Beaky, Mick 
and Tich".

Intro:
G|------- ------- ------- -------|------- ------- ------- -------|
D|-------------------------------|-------------------------------|
A|-------------------------------|-------------------------------|
E|-------------------------------|-------------------------------|
 (drums)


G|------- ------- ------- -------|------- ------- ------- -------|
D|-------------------------------|-------------------------------|
A|-------------------------------|-------------------------------|
E|-------------------------------|-------------------------------|
 (fuzz guitar enters)


G|------- ------- ------- -------|------- ------- ------- -------|
D|-------------------------------|-------------------------------|
A|7-------7-------7---7---7------|7---7---7---7---7---7---7------|
E|-------------------------------|-------------------------------|



G|------- ------- ------- -------|------- ------- ------- -------|
D|-------------------------------|-------------------------------|
A|7---7---7---7---7---7---7---7--|7---7---7---7---7---7---7---7--|
E|-------------------------------|-------------------------------|


Verse:
G|------- ------- ------- -------|------- ------- ------- -------|
D|-------------------------------|----------------------------6--|
A|7-------7----------------------|7-------7---7-----------7------|
E|----------------7---7---9---10-|----------------7---7----------|
  Hold    tight,  count to three, got to  stay close  by  me, and


G|------- ------- ------- -------|------- ------- ------- -------|
D|7-------7----------------------|7-------7---------------7------|
A|----------------7---7---9---10-|----------------7---7----------|
E|-------------------------------|-------------------------------|
  hold    tight,  sing and shout, just ride my round- about,  And
 (yeah,   yeah,   yeah,   yeah,   yeah,   yeah,   yeah,   yeah,

G|------- ------- ------- -------|------- ------- ------- -------|
D|9-------9----------------------|9-------9---------------9---7--|
A|----------------9---9---11--12-|------------9-------9----------|
E|-------------------------------|-------------------------------|
  hold    tight,  shut your eyes, girl, you suit me   for si- i-
  yeah,   yeah,   yeah,   yeah,   yeah,   yeah,   yeah,   yeah)

G|------- ------- ------- -------|------- ------- ------- -------|
D|----------------------------7--|7-----------7-----------7---6--|
A|7-------7---------------7------|----------------7---7----------|
E|----------------7---7----------|-------------------------------|
  i  -    i   -   i - i   -   ize,                            For-


G|------- ------- ------- -------|------- ------- ------- -------|
D|-------------------------------|9-----------9-----------9------|
A|9-----------9-----------9------|----------------9--------------|
E|----------------9--------------|-------------------------------|
  get     the     o - ther    guys.                           You'll

Refrain:
G|------- ------- ------- -------|------- ------- ------- -------|
D|----------------------------6--|7-------7----------------------|
A|7-------7---------------7------|------------7-----------7------|
E|------------7-------7----------|-------------------------------|
  ne  -   ver fall,          each time    you call,       Hold


G|------- ------- ------- -------|------- ------- ------- -------|
D|-------------------------------|-------------------------------|
A|9-------9---9-----------7---7--|9-------9---9-----------7---7--|
E|----------------7--------------|----------------7--------------|
  tight,                  hold    tight,                  hold


G|------- ------- ------- -------|------- ------- ------- -------|
D|-------------------------------|-------------------------------|
A|-------------------------------|-------------------------------|
E|7---7---7---7---7---7---7---7--|7---7---7---7---7---7---7---7--|
  tight!


G|------- ------- ------- -------|
D|-------------------------------|
A|-------------------------------|
E|7---7---7---7---7---7---7---7--|


Verse:
G|------- ------- ------- -------|------- ------- ------- -------|
D|-------------------------------|----------------------------6--|
A|7-------7----------------------|7-------7---------------7------|
E|----------------7---7---9---10-|----------------7---7----------|
  Hold    tight,  make me feel    what you say is     for real, and


G|------- ------- ------- -------|------- ------- ------- -------|
D|7-------7---------------5------|7-------7---------------7------|
A|----------------7---7----------|----------------7---7----------|
E|-------------------------------|-------------------------------|
  hold    tight,  ca- rousel,     girl, you'll soon ring my bell, And
 (yeah,   yeah,   yeah,   yeah,   yeah,   yeah,   yeah,   yeah,

G|------- ------- ------- -------|------- ------- ------- -------|
D|9-------9----------------------|9-------9---------------9---7--|
A|----------------9---9---11--12-|----------------9--------------|
E|-------------------------------|-------------------------------|
  hold    tight,  we will fly,    swing it low, swing it  hi- i-
  yeah,   yeah,   yeah,   yeah,   yeah,   yeah,   yeah,   yeah)

G|------- ------- ------- -------|------- ------- ------- -------|
D|----------------------------7--|7-----------7-----------7---6--|
A|7-------7---------------7------|----------------7---7----------|
E|----------------7---7----------|-------------------------------|
  i   -   i   -   i - i   -   igh,                            We're


G|------- ------- ------- -------|------- ------- ------- -------|
D|-------------------------------|9-----------9-----------9------|
A|9-----------9-----------9------|----------------9--------------|
E|----------------9--------------|-------------------------------|
  gon  -  na      make the    sky.                            You'll

Refrain:
G|------- ------- ------- -------|------- ------- ------- -------|
D|----------------------------6--|7-------7----------------------|
A|7-------7---------------7------|------------7-----------7---7--|
E|------------7-------7----------|-------------------------------|
  ne  -   ver fall,          each time    you call,       Hold


G|------- ------- ------- -------|------- ------- ------- -------|
D|-------------------------------|-------------------------------|
A|9-------9---9-----------7---7--|9-------9---9-----------7------|
E|----------------7--------------|----------------7--------------|
  tight,                  hold    tight,                  hold


G|------- ------- ------- -------|------- ------- ------- -------|
D|-------------------------------|-------------------------------|
A|-------------------------------|-------------------------------|
E|7---7---7---7---7---7---7---7--|7---7---7---7---7---7---7---7--|
  tight!


G|------- ------- ------- -------|
D|-------------------------------|
A|-------------------------------|
E|7---7---7---7---7---7---7---7--|


Bridge (solo):
G|------- ------- ------- -------|------- ------- ------- -------|
D|-------------------------------|-------------------------------|
A|----------------7-------7---7--|----------------7-----------7--|
E|7-------7----------------------|7-----------7------------------|



G|------- ------- ------- -------|------- ------- ------- -------|
D|-------------------------------|-------------------------------|
A|----------------7-------7---7--|----------------7-------7---7--|
E|7-----------7------------------|7-----------7------------------|



G|------- ------- ------- -------|------- ------- ------- -------|
D|-------------------------------|-------------------------------|
A|----------------7-----------7--|----------------7-----------7--|
E|7-----------7------------------|7-----------7------------------|


Re-intro:
G|------- ------- ------- -------|------- ------- ------- -------|
D|-------------------------------|-------------------------------|
A|-------------------------------|-------------------------------|
E|7------------------------------|-------------------------------|



G|------- ------- ------- -------|------- ------- ------- -------|
D|-------------------------------|-------------------------------|
A|-------------------------------|-------------------------------|
E|-------------------------------|-------------------------------|



G|------- ------- ------- -------|------- ------- ------- -------|
D|-------------------------------|-------------------------------|
A|7-------7-------7---7---7------|7---7---7---7---7---7---7---7--|
E|-------------------------------|-------------------------------|



G|------- ------- ------- -------|------- ------- ------- -------|
D|-------------------------------|-------------------------------|
A|7---7---7---7---7---7---7---7--|7---7---7---7---7---7---7---7--|
E|-------------------------------|-------------------------------|


Verse:
G|------- ------- ------- -------|------- ------- ------- -------|
D|-------------------------------|----------------------------6--|
A|7-------7----------------------|7-------7---7-----------7------|
E|----------------7---7---9---10-|----------------7---7----------|
  Hold    tight,  count to three, got to  stay close  by  me, and


G|------- ------- ------- -------|------- ------- ------- -------|
D|7-------7---------------5---5--|7-------7---------------7---8--|
A|----------------7---7----------|----------------7---7----------|
E|-------------------------------|-------------------------------|
  hold    tight,  sing and shout, just ride my round- about,  And
 (yeah,   yeah,   yeah,   yeah,   yeah,   yeah,   yeah,   yeah,

G|------- ------- ------- -------|------- ------- ------- -------|
D|9-------9----------------------|9-------9---------------9---7--|
A|----------------9---9---11--12-|------------9-------9----------|
E|-------------------------------|-------------------------------|
  hold    tight,  shut your eyes, girl, you suit me   for si- i-
  yeah,   yeah,   yeah,   yeah,   yeah,   yeah,   yeah,   yeah)

G|------- ------- ------- -------|------- ------- ------- -------|
D|----------------------------7--|------------7-----------7---6--|
A|7-------7---------------7------|----------------7--------------|
E|----------------7---7----------|-------------------------------|
  i  -    i   -   i - i   -   ize,                            For-


G|------- ------- ------- -------|------- ------- ------- -------|
D|-------------------------------|-------------------------------|
A|9-------9---------------9/-----|14----------14----------14\----|
E|----------------9--------------|----------------14-------------|
  get     the     o - ther    guys.                           You'll

Refrain:
G|------- ------- ------- -------|------- ------- ------- -------|
D|----------------------------6--|7-------7----------------------|
A|7-------7---------------7------|------------7-----------7------|
E|------------7-------7----------|-------------------------------|
  ne  -   ver fall,          each time    you call,       Hold


G|------- ------- ------- -------|------- ------- ------- -------|
D|-------------------------------|-------------------------------|
A|9-----------9-----------7------|9-----------9-----------7------|
E|----------------7--------------|----------------7--------------|
  tight,                  hold    tight,                  hold


G|------- ------- ------- -------|------- ------- ------- -------|
D|-------------------------------|-------------------------------|
A|-------------------------------|-------------------------------|
E|7---7---7---7---7---7---7---7--|7---7---7---7---7---7---7---7--|
  tight!


G|------- ------- ------- -------|
D|-------------------------------|
A|-------------------------------|
E|7---7---7---7---7---7---7---7--|


Outro:
G|------- ------- ------- -------|------- ------- ------- -------|
D|-------------------------------|-------------------------------|
A|-------------------------------|-------------------------------|
E|7------------------------------|-------------------------------|



G|------- ------- ------- -------|------- ------- ------- -------|
D|-------------------------------|-------------------------------|
A|-------------------------------|-------------------------------|
E|-------------------------------|-------------------------------|



G|------- ------- ------- -------|------- ------- ------- -------|
D|-------------------------------|-------------------------------|
A|-------------------------------|-------------------------------|
E|7-------7-------7---7---7------|7---7---7---7---7---7---7---7--|



G|------- ------- ------- -------|------- ------- ------- -------|
D|-------------------------------|-------------------------------|
A|-------------------------------|-------------------------------|
E|7-------7-------7---7---7------|7---7---7---7---7---7---7---7--|



G|------- ------- ------- -------|------- ------- ------- -------|
D|-------------------------------|-------------------------------|
A|-------------------------------|-------------------------------|
E|7-------7-------7---7---7---7--|7---7---7---7---7-------7------|



G|------- ------- ------- -------|------- ------- ------- -------|
D|-------------------------------|-------------------------------|
A|-------------------------------|-------------------------------|
E|7---7---7---7---7---7---7---7--|7---7---7---7---7---7---7---7--|



G|------- ------- ------- -------|------- ------- ------- -------|
D|-------------------------------|-------------------------------|
A|7------------------------------|-------------------------------|
E|-------------------------------|-------------------------------|

Please e-mail me for any corrections, or write a comment.

            
            
Suggest correction
Creating personal tab
Creating personal tab
You can edit any tab online and save it as your Personal.

You can edit, replace or remove any tab part or add personal notes – all changes will be seen only by you.

Personal tabs can be accessed anytime from any device, even offline.
Learn more »
Give kudos to tab author, rate the tab!
1 2 3 4 5
comments
print report bad tab
guest
You may want to rate the tab now too:
select rating
Wanna post a correction for this tab? Suggest correction