Oops, an error
Loading. Please wait.

Welcome Home chords

version 1
version 1

Whole song

  • I have uploaded this song as previous version (onl... Show more
25,076 views 33 this week
4 commentsread comments
1 2 3 4 5
x 12
add to favorites
×
Save as Personal and add changes to this tab that will be seen only by you. Learn more ›
×
You can save this tab as Personal to edit and correct it or add notes. All changes will be seen only by you. Learn more »
launch autoscroll
font size
0
reset
transpose
0
reset
simplify chords
display chords
guitar tuner
edit
Autoscroll
slow
fast
+/-
esc
set tempo
stop
Strumming
There is no strumming pattern for this song yet. and get +5 IQ
WELCOME HOME – DAVE DOBBYN TABBED BY: SIMZYofNZ (28/04/06)

[CHORDS USED]
    Em  Dsus4/F#  G  Cadd9  Em7  D
e|---3-----3------3----3-----3---2---|
B|---3-----3------3----3-----3---3---|
G|---0-----2------0----0-----0---2---|
D|---2-----0------0----2-----0---0---|
A|---2-----0------2----3-----2---0---|
E|---0-----2------3----X-----0---X---|

Play this introduction twice through. Don't be strict on string selection -       listen 
the track to get the feel.

[INTRODUCTION]
e|------------------------------------------------------------------|
B|-----8---8---7---7---3---3---3---3---3---3---3---3---5---5---5----|
G|-------0---0---0---0---0---0---0---0---0---0---0---0---0---0------|
D|------------------------------------------------------------------|
A|-----7-------5-------2-------2---------------2-------3-------3----|
E|-------------------------------------3----------------------------|

[VERSE 1]
Em  Dsus4/F#   G               Cadd9     
       D
  Tonight I am feeling for you under the state of a strange land
Em         Dsus4/F#   G               Cadd9 
        Em7          D
  You have sacrificed much to be here,‘there but for grace…’ as I offer my hand

[CHORUS 1]
Cadd9   G        D                   Em Dsus4/F#
     Welcome home, I bid you welcome, I bid you welcome
Cadd9   G        D         Em          Dsus4/F#
     Welcome home from the bottom of my heart

(same chords, same rhythm)

[VERSE 2]
Out here on the edge the empire is fading by the day
And the world is so weary in war, maybe we’ll find that new way?

[CHORUS 2]
So welcome home, see I made a space for you now
Welcome home from the bottom of our heart
Welcome home from the bottom of our hearts

[BRIDGE]
Em                            G
  Keep it coming now, keep it coming now
Em                                     G
  You’ll find most of us here with our hearts wide open
Em                            G
  Keep it coming now, keep on coming now
        D                   Em     Dsus/F# 
Cadd9 Em7 Cadd9 D
Keep it coming now, keep on coming now

Em  Dsus/F#  G  Cadd9  Em7  
 D    (Instrumental)

[VERSE 3]
Em          Dsus4/F#       G                
Em7 D
  There’s a woman with her hands trembling, haere mai
Em        Dsus4/F#     G                  
Em7 D
  And she sings with a mountain’s memory, haere mai

[VERSE 4]
(Lightly Picked)
Em         Dsus4/F#        G                      
       Em7
  There’s a cloud the full length of these isles, just playing chase with the
D (back to strumming)
sun

Em         Dsus4/F#       G                    
  Em7         D
  And it’s black and it’s white and it’s wild, all the colours are one

[CHORUS/REFRAIN]
Cadd9  G      D                     Em Dsus4/F#
    Welcome home, I bid you welcome, I bid you welcome
Cadd9  G      D           Em          Dsus4/F#
    Welcome home from the bottom of our hearts
Cadd9  G      D                Em           Dsus4/F#
    Welcome home, see I made a space for you now
Cadd9  G      D            Em         
(hold)
    Welcome home from the bottom of our hearts

[OUTRO]
         Em           Dsus4/F# G (let ring)
From the bottom of our hearts
Suggest correction
Creating personal tab
Creating personal tab
You can edit any tab online and save it as your Personal.

You can edit, replace or remove any tab part or add personal notes – all changes will be seen only by you.

Personal tabs can be accessed anytime from any device, even offline.
Learn more »
comments
print report bad tab
4 comments total. Showing first comments.
0 reply
bree_lollipop 10 Mar 26, 2011 12:23 AM

haey , awesome tab but intro isnt quite right

it should be

e-----------------------------------------------------2---2--2---2-|e
b-----8---8---7---7---3---3---3---3---1---1---3---3-----3------3---|b
g-------0---0---0---0---0---0---0---0---0---0---0---0--------------|g
d-----------------------------------------------------0------0-----|d
a-----7-------5-------2-------2-------0-------2--------------------|a
E------------------------------------------------------------------|E

0 reply
bree_lollipop 10 Mar 26, 2011 12:24 AM

it sounds alot more like the recording with ^^ intro

0 reply
tonibet72 376 Nov 16, 2015 01:24 PM, edited at 06:25 pm

undefined

guest
Wanna post a correction for this tab? Suggest correction