Oops, an error
Loading. Please wait.

Information Chords

337 views 1 this week
no commentswrite comment
1 2 3 4 5
2 more votes to show rating
add to favorites
launch autoscroll
font size
0
reset
transpose
0
reset
simplify chords
display chords
guitar tuner
Autoscroll
slow
fast
+/-
esc
set tempo
stop
Help us to improve Ultimate-Guitar.com Take our survey!
×
Author
Difficulty
maguri [tm] 27,083
novice
--------------------------------------------------------------------------
                Information - Dave Edmunds
--------------------------------------------------------------------------
Tabbed by: maguri
Tuning: Standard

Dave Edmunds 
Information (1983)
(Edmunds/Radice)

From: "Information"

--------------------------------------------------------------------------
CHORDS
 
D/F#      2-x-0-2-3-2
Bb/F      1-x-3-3-3-1
C/E       0-3-2-0-1-0

--------------------------------------------------------------------------

INTRO
  G
  1 + 2 + 3 + 4 +  1 + 2 + 3 + 4 +  1 + 2 + 3 + 4 +  1 + 2 + 3 + 4 +
e|----------------|----------------|----------------|----------------|
B|1---0-1---0-----|----------------|1---0-1---0-----|----------------|
G|0---0-0---0-----|----------------|0---0-0---0-----|----------------|
D|0---0-0---0-----|----------------|0---0-0---0-----|----------------|
A|----------------|----------------|----------------|----------------|
E|3---3-3---3-----|----------------|3---3-3---3-----|----------------|
  A
  1 + 2 + 3 + 4 +  1 + 2 + 3 + 4 +  1 + 2 + 3 + 4 +  1 + 2 + 3 + 4 +
e|----------------|----------------|----------------|----------------|
B|3---2-3---2-----|----------------|3---2-3---2-----|----------------|
G|2---2-2---2-----|----------------|2---2-2---2-----|0---------------|
D|2---2-2---2-----|----------------|2---2-2---2-----|--4-2-0---------|
A|0---0-0---0-----|----------------|0---0-0---0-----|--------4-2-0---|
E|----------------|----------------|----------------D--------------5-|0
                                                     (lead git: drop-D)

--------------------------------------------------------------------------

INTRO (see above)
| G | % | % | % | 
| A | % | % | % |

D            Bm               G      A
 She's been around me all the while
D         Bm                G       A
 Try as I might, I can't forget her smile
D           D/F#          G                   E/G#
 In passing conversation, what did I hear her say?
F                        C                 G  D
Where did she come from? Who is that woman anyway?

D           Bm               G      A
 What can I do to change her mind?
D          Bm                   G       A
 Maybe she thinks that I'm just not her kind
D            D/F#               G                      E/G#
 I think she wants me but she's trying to play hard to get
F                       C                G     D
When she treats me this way, I wish we'd never met

Bb     
Information, that's what I need,
     C    
Some information, where did she come from?
D
Information, that's what I need some information
Bb     
Information, that's what I need,
     C    
Some information, where did she come from?
D
Information, give me a lead, some information

D              Bm                G      A
 The lights go down, the music's loud
D           Bm                G      A
 She's not around, I lost her in the crowd
D         D/F#                G           E/G#
 I really want her, but she's just a mystery
F                  C              G      D
What have I got to do to make her notice me?

Bb     
Information, that's what I need,
     C    
Some information, where did she come from?
D
Information, that's what I need some information
Bb     
Information, that's what I need,
     C    
Some information, where did she come from?
D
Information, give me a lead, some information


SOLO
| Bb | % | D | % |
| Bb | % | D | % |
| Bb | % | D | % |
| Bb | % | G | % |


D        Bm             G      A
 If only I could find a way
D          Bm            G        A
 What do I have to do to make her stay?
D            D/F#               G                E/G#
 I've got to find her again and try to steal her heart
F                C                      G        D
What I need is a lead, but I don't know where to start


Bb     
Information, that's what I need,
     C    
Some information, where did she come from?
D
Information, that's what I need some information
Bb     
Information, that's what I need,
     C    
Some information, where did she come from?
D
Information, give me a lead, some information

Bb[/F]    
Information, that's what I need,
     C[/E]        C
Some information, where did she come from?
D
Information, that's what I need some information
Bb     
Information, that's what I need,
     C    
Some information, where did she come from?
D
Information, give me a lead, some information

Bb[/F]    
Information, that's what I need,
     C[/E]        C
Some information, where did she come from?
D
Information, that's what I need some information
Bb     
Information, that's what I need,
     C    
Some information, where did she come from?
D
Information, give me a lead, some information

(repeat and fade)

Suggest correction
Give kudos to tab author, rate the tab!
1 2 3 4 5
comments
print report bad tab
guest
You may want to rate the tab now too:
select rating
Wanna post a correction for this tab? Suggest correction