Oops, an error
Loading. Please wait.

Saw Something Chords

version 1
version 1

Solo

Whole song

43 views 1 this week
no commentswrite comment
1 2 3 4 5
1 last vote to show rating
add to favorites
launch autoscroll
font size
0
reset
transpose
0
reset
display chords
guitar tuner
Autoscroll
slow
fast
+/-
esc
set tempo
stop
Help us to improve Ultimate-Guitar.com Take our survey!
×
Author
Difficulty
novice
------------------------------------------------------------------------------------------------------------
                                          Artist - Dave Gahan
                                         *********************
                                          Song - Saw Something
                                         **********************
                                        Album - Hourglass (2007)    
                                       **************************
                                          Tabbed By - Ayreon77
                                         **********************
------------------------------------------------------------------------------------------------------------
Tuning = Standard                        A Request For The Solo





Played with some slight fixed Wha Wha

e|--rb--rb--rb--rb---b--------|--h---s-----------------------|-------------------|----------------|----------|
B|-11--11--11--11---13--9~~~~-|-8-9-9\13--9-8--9-8--9-8------|-9-8---------------|----------------|----------|
G|----------------------------|-------------------------8~~~-|------8--10---p----|--s---8-10--s---|----8-----|
D|----------------------------|------------------------------|------------8--6---|-8\10------8\10-|------6-5-|
A|----------------------------|------------------------------|-----------------8-|----------------|-8--------|
E|----------------------------|------------------------------|-------------------|----------------|----------|


e|-16-15-16---s-|-------------------------|
B|----------16\-|-------------------------|
G|--------------|-8-----------------------|
D|--------------|---10--6-5--6-5----------|
A|--------------|-----------------6--3~~~-|
E|--------------|-------------------------|




p   = Pull Off
b   = Bend
rb  = Release Bend
/   = Slide
Suggest correction
Give kudos to tab author, rate the tab!
1 2 3 4 5
comments
print report bad tab
guest
You may want to rate the tab now too:
select rating
Wanna post a correction for this tab? Suggest correction