Oops, an error
Loading. Please wait.

August Murray Theme tab

62 views 3 this week
no commentswrite comment
1 2 3 4 5
3 more votes to show rating
add to favorites
×
Save as Personal and add changes to this tab that will be seen only by you. Learn more ›
×
You can save this tab as Personal to edit and correct it or add notes. All changes will be seen only by you. Learn more »
launch autoscroll
font size
0
reset
how to read this tab
guitar tuner
edit
Autoscroll
slow
fast
+/-
esc
set tempo
stop
Author
Difficulty
This is an instrumental song off the "Touch" Soundtrack. All instruments are played by Dave Grohl.

It's in standard tuning.

Main Riff (played by first gtr. and bass) repeated throughout all the song


e----------------------------------------------e
B----------------------------------------------B
G----------------------------------------------G
D----------------------------------------------D
A----------4-4--2-2---------------------4-4\---A
E---0-2-0------------4-4--2-2--0-0-2-0---------E


At 0:34 comes 2nd guitar - same riff an octave higher


e-----------------------------------------------e
B-----------------------------------------------B
G----------6-6--4-4---------------------6-6\----G
D---2-4-2------------6-6--4-4--2-2-4-2----------D
A-----------------------------------------------A
E-----------------------------------------------E


At 1:03 - 3rd guitar part


e-----------------12L-------------11L-----12\---e
B-------------14L-------------13L---------14\---B
G---------13L-------------12L-------------13\---G
D-----------------------------------------------D
A-----------------------------------------------A
E-----------------------------------------------E


At 1:30 - 4th guitar


e-----------------------------------------12----e
B--------------------------------------------14-B
G--13h12h13---------12h11h12----------/13-------G
D-----------14-11------------13-10--------------D
A-----------------------------------------------A
E-----------------------------------------------E

BREAK - 2:25

2nd guitar fade out like this : (1st guitar + bass stay)

e-----------------------------------------------e
B-----------------------------------------------B
G----------6\-----------------------------------G
D---2-4-2---------------------------------------D
A-----------------------------------------------A
E-----------------------------------------------E


At 2:54 everything goes back in - 4 guitars.

The end is the same as the break.

That's it, hope you'll enjoy it.

Tabbed by Suds.




            
            
Suggest correction
Creating personal tab
Creating personal tab
You can edit any tab online and save it as your Personal.

You can edit, replace or remove any tab part or add personal notes – all changes will be seen only by you.

Personal tabs can be accessed anytime from any device, even offline.
Learn more »
Give kudos to tab author, rate the tab!
1 2 3 4 5
comments
print report bad tab
guest
You may want to rate the tab now too:
select rating
Wanna post a correction for this tab? Suggest correction