Oops, an error
Loading. Please wait.

Please Come To Boston tab

845 views 21 this week
no commentswrite comment
1 2 3 4 5
2 more votes to show rating
add to favorites
×
Save as Personal and add changes to this tab that will be seen only by you. Learn more ›
×
You can save this tab as Personal to edit and correct it or add notes. All changes will be seen only by you. Learn more »
launch autoscroll
font size
0
reset
how to read this tab
guitar tuner
edit
Autoscroll
slow
fast
+/-
esc
set tempo
stop
-------------------------------------------------------------------------------
                             Please Come to Boston - Dave Loggins
-------------------------------------------------------------------------------
Tabbed by: Brad Tucker
Interpretation of multiple guitar parts for playing solo
Transcribed from youtube by ScottDixonGreen and modified

E-mail:

Tuning: Drop D, Capo II
Intro
    
     Gmaj7                           Gmaj7           Em       
     1 & 2 & 3 & 4 &|1 & 2 & 3 & 4 &|1 & 2 & 3 & 4 &|1 & 2 & 3 & 4 &
e-|------------------------------------------------------------------|
B-|------------3----------(0)------------------3----------(0)--------|
G-|---(0)--0------(0)---(0)-----------(0)--0—-----(0)---(0)----------|
D-|------4-----------4p0---------0-------4-----------4p0---------0---|
A-|--------------------------0h2-----------------------------0h2-----|
D-|--5-------------------------------5-------------------------------|

     D                               D
     1 & 2 & 3 & 4 &|1 & 2 & 3 & 4 &|1 & 2 & 3 & 4 &|1 & 2 & 3 & 4 &
e-|------------2-----3p0-----0h2---------------2-----3p0-----0h2-----|
B-|----------------------3-------3-----------3-----------3-------3---|
G-|------0h2-------2-------2-------2-----0h2-------2-------2-------2-|
D-|------------------------------------------------------------------|
A-|------------------------------------------------------------------|
D-|--0-------------------------------0-------------------------------|


______________________________________________________________________
Verse #1

     D                               Gmaj7           Em
     1 & 2 & 3 & 4 &|1 & 2 & 3 & 4 &|1 & 2 & 3 & 4 &|1 & 2 & 3 & 4 &
e-|------------2-----3p0-----0h2-------------------------------------|
B-|----------------------3-------3-------------3----------(0)--------|
G-|------0h2-------2-------2-------2--(0)--0—-----(0)---(0)----------|
D-|--------------------------------------4-----------4p0---------0---|
A-|----------------------------------------------------------0h2-----|
D-|--0-------------------------------5-------------------------------|
     Please come to Boston for the   Springtime

     D                               Gmaj7           Em
     1 & 2 & 3 & 4 &|1 & 2 & 3 & 4 &|1 & 2 & 3 & 4 &|1 & 2 & 3 & 4 &
e-|------------2-----3p0-----0h2-------------------------------------|
B-|----------------------3-------3-------------3----------(0)--------|
G-|------0h2-------2-------2-------2--(0)--0—-----(0)---(0)----------|
D-|--------------------------------------4-----------4p0---------0---|
A-|----------------------------------------------------------0h2-----|
D-|--0-------------------------------5-------------------------------|
     I’m staying here with some friends and they’ve got
                                     Lots of room


     Asus7           A7              D
     1 & 2 & 3 & 4 &|1 & 2 & 3 & 4 &|1 & 2 & 3 & 4 &|1 & 2 & 3 & 4 &
e-|----------------------------------------0-------0-------2-------3-|
B-|--------3---------------2-------2-----------3---------------3-----|
G-|------------0—-(0)----------0---------2-------2-------2-------2---|
D-|------2-------2-------2-------2---0---------------0---------------|
A-|---0--------------0-----------------------------------------------|
D-|------------------------------------------------------------------|
   And You can sell your paintings on the                    By a 
                                     sidewalk   


     Bm              Bm              Gmaj7           Em
    |1 & 2 & 3 & 4 &|1 & 2 & 3 & 4 &|1 & 2 & 3 & 4 &|1 & 2 & 3 & 4 &
e-|--------2-------2-----2-------2-----------------------------------|
B-|------------3-----------3-------3-----------3----------(0)--------|
G-|--4---4-------4--—0-------0-------------0—-----(0)---(0)----------|
D-|--------------------------------------4-----------4p0---------0---|
A-|--2---------------2-------0-------------------------------0h2-----|
D-|----------------------------------5-------------------------------|
     Café where I   hope   to be     workin’ soon


     D                               Asus7           A7
    |1 & 2 & 3 & 4 &|1 & 2 & 3 & 4 &|1 & 2 & 3 & 4 &|1 & 2 & 3 & 4 &
e-|------------2-----3p0-----0h2-------------------------------------|
B-|----------------------3-------3---3-------3-----------2-------2---|
G-|------0h2-------2-------2-------2-------0-----0---0-------0-------|
D-|--------------------------------------2---------2---2-------0-----|
A-|----------------------------------0-------------------------------|
D-|--0---------------------------------------------------------------|
     Please come to boston...        no,              would you come home to


     D
    |1 & 2 & 3 & 4 &|1 & 2 & 3 & 4 &
e-|--2-----2-----3---2-----2-----3---|
B-|--3-------3-----3---------3-----3-|
G-|--2---2-----2---------2-----2-----|
D-|--0-------2-------0-------2-------|
A-|----------------------------------|
D-|----------------------------------|
     Me                       and she said




______________________________________________________________________
Chorus 

     D               A7      D                       
    |1 & 2 & 3 & 4 &|1 & 2 & 3 & 4 & 
e-|--------2-------2---------------2-|
B-|------------3-----------2---------|
G-|------2-------2---------------2---|
D-|--0-------------------2---0-------|
A-|------------------0---------------|
D-|----------------------------------|
     Hey ramblin’ boy why don’t you 
                     settle  
                             down    

     D               A7      D                       
    |1 & 2 & 3 & 4 &|1 & 2 & 3 & 4 & 
e-|--------2-------2---------------2-|
B-|------------3-----------2---------|
G-|------2-------2---------------2---|
D-|--0-------------------2---0-------|
A-|------------------0---------------|
D-|----------------------------------|
     Boston ain’t your 
                     kind of
                             town   There


     D               Dmaj7           Gmaj7           Em   
    |1 & 2 & 3 & 4 &|1 & 2 & 3 & 4 &|1 & 2 & 3 & 4 &|1 & 2 & 3 & 4 &  
e-|--------2-------2-----------2-------------------------------------|
B-|------------3-----------2-----2-------------3----------(0)--------|
G-|------2-------2-------2---------2-------0—-----(0)---(0)----------|
D-|--0---------------0-------------------4-----------4p0---------0---|
A-|----------------------------------------------------------0h2-----|
D-|----------------------------------5-------------------------------|
     Ain’t no gold and there 
                     Ain’t nobody like
                                     Me                ‘cause I’m the


     Em7             A7              D
     1 & 2 & 3 & 4 &|1 & 2 & 3 & 4 &|1 & 2 & 3 & 4 &|1 & 2 & 3 & 4 &
e-|--------------------------------------------2-----030-----0h2-----|
B-|--------3---------------2-----------------------------3-------3---|
G-|------------0---0-----------0---0-----0h2-------2--------2------2-|
D-|------2-------2-------2-------2-----------------------------------|
A-|------------------0-----------------------------------------------|
D-|--2-------------------------------0-------------------------------|
     Number one fan of the
                     Man from
                                 Tennessee

________________________________________________________________________
Verse #2 (same picking as above, with lyrics and chord changes as shown)

D                               Gmaj7
Please come to Denver, with the snow fall
      D                                          Gmaj7
We'll move up into the mountains so high that we can t be found
Asus7              A7              D
Throw "I love you" echoes down the canyon
         Bm           Bm                  Gmaj7
And then lie awake at night til they come back around
D              
Please come to Denver
          Asus7             A7      D         
She said "No, Baby you come home to me”   and she said

______________________________________________________________________
Chorus (same as above)

______________________________________________________________________
Solo a Bridge

     D                               Gmaj7           Em
     1 & 2 & 3 & 4 &|1 & 2 & 3 & 4 &|1 & 2 & 3 & 4 &|1 & 2 & 3 & 4 &
e-|------------2-----3p0-----0h2-------------------------------------|
B-|----------------------3-------3-------------3----------(0)--------|
G-|------0h2-------2-------2-------2--(0)--0—-----(0)---(0)----------|
D-|--------------------------------------4-----------4p0---------0---|
A-|----------------------------------------------------------0h2-----|
D-|--0-------------------------------5-------------------------------|
     

     Em              G       A7      D
     1 & 2 & 3 & 4 &|1 & 2 & 3 & 4 &|1 & 2 & 3 & 4 &|1 & 2 & 3 & 4 &
e-|----------------------------------------0---0-0h2-----------------|
B-|----0-------0-------0-------2---------3---3-----------------------|
G-|--------0-------0-------0-------0---2-------0-0h2-----------------|
D-|------2-------4-------4-------2---0-------------------------------|
A-|--------------------------0---------------------------------------|
D-|--2-------4-------5-----------------------------------------------|
                                                     Now this              


     Bm              A               G       A7      D
     1 & 2 & 3 & 4 &|1 & 2 & 3 & 4 &|1 & 2 & 3 & 4 &|1 & 2 & 3 & 4 &
e-|--------2-------2-0---------0---------------------2---------2-----|
B-|------------3-----------2-----2---0-------2-------3-----3-----3---|
G-|--4---4-------4-------2---------2-0-----0-0-----0-2---2---------2-|
D-|------------------2---------------4---4---2---2---0---------------|
A-|--2---------------------------------------0-----------------------|
D-|----------------------------------5-------------------------------|
     Drifters world goes
                     Round and round and I 
                                     doubt that its
                                             ever gonna 
                                                     stop

     Bm              A               Gmaj7           Gmaj7     
     1 & 2 & 3 & 4 &|1 & 2 & 3 & 4 &|1 & 2 & 3 & 4 &|1 & 2 & 3 & 4 &
e-|--------2-------2-0---------0-------------------------------------|
B-|------------3-----------2-----2---------3-------3-------3-------3-|
G-|--4---4-------4-------2---------2-----------0---------------0-----|
D-|------------------2-------------------4-------4-------4-------4---|
A-|--2---------------------------------------------------------------|
D-|----------------------------------5---------------5---------------|
     But of all the dreams I’ve 
                     Lost and found and 
                                     All that I ain’t got


     Em7             Em7             A7sus           A7
     1 & 2 & 3 & 4 &|1 & 2 & 3 & 4 &|1 & 2 & 3 & 4 &|1 & 2 & 3 & 4 &
e-|------------------------------------------------------------------|
B-|--------3-------3-------3-------3-------3-------3-------2-------2-|
G-|------------0---------------0---------------0---------------0-----|
D-|------2-------2-------2-------2-------2-------2-------2-------2---|
A-|----------------------------------0---------------0---------------|
D-|--2---------------2-----------------------------------------------|
     I still need to lean to
                                     Somebody I can sing to


________________________________________________________________________   
Verse #3 (same picking as above, with lyrics and chord changes as shown)
D                                Gmaj7
Please come to L.A., to  live forever
    D                        Gmaj7
The California life alone is just to hard to bear
Asus7              A7              D
Throw "I love you" echoes down the canyon
         Bm           Bm                  Gmaj7
And then lie awake at night til they come back around
D              
Please come to LA
          Asus7             A7      D         
She said "No, Baby you come home to me”   and she said

_______________________________________________________________________
Chorus (same as above, except ending as follows)

     Em7             A7              D
     1 & 2 & 3 & 4 &|1 & 2 & 3 & 4 &|1 & 2 & 3 & 4 &|1 & 2 & 3 & 4 &
e-|----------------------------------------0-------0-------0-------0-|
B-|--------3---------------2-------------------3---------------3-----|
G-|------------0---0-----------0---0-----2-------2-------2-------2---|
D-|------2-------2-------2-------2---0---------------0---------------|
A-|------------------0-----------------------------------------------|
D-|--2---------------------------------------------------------------|
     Number one fan of the                                     yea I’m the
                     Man from
                                 Tennessee


     Em7             A7              D
     1 & 2 & 3 & 4 &|1 & 2 & 3 & 4 &|1 & 2 & 3 & 4 &
e-|------------------------------------------0---0h2-|
B-|--------3---------------2---------------3---3-----|
G-|------------0---0-----------0---0-----2-------0h2-|
D-|------2-------2-------2-------2---0---------------|
A-|------------------0-------------------------------|
D-|--2-----------------------------------------------|
     Number one fan of the
                     Man from
                                 Tennessee



************************************

| /   slide up
| \   slide down
| h   hammer-on
| p   pull-off
| ~   vibrato
| +   harmonic
| x   Mute note
| b   Bend
| pb  Pre-bend
| br  Bend release
| pbr Pre-bend release
| brb Bend release bend

************************************

            
            
Suggest correction
Creating personal tab
Creating personal tab
You can edit any tab online and save it as your Personal.

You can edit, replace or remove any tab part or add personal notes – all changes will be seen only by you.

Personal tabs can be accessed anytime from any device, even offline.
Learn more »
Give kudos to tab author, rate the tab!
1 2 3 4 5
comments
print report bad tab
guest
You may want to rate the tab now too:
select rating
Wanna post a correction for this tab? Suggest correction