Oops, an error
Loading. Please wait.

The Lonely One tab

94 views 1 this week
no commentswrite comment
1 2 3 4 5
3 more votes to show rating
add to favorites
×
Save as Personal and add changes to this tab that will be seen only by you. Learn more ›
×
You can save this tab as Personal to edit and correct it or add notes. All changes will be seen only by you. Learn more »
launch autoscroll
font size
0
reset
how to read this tab
guitar tuner
edit
Autoscroll
slow
fast
+/-
esc
set tempo
stop
Author
Difficulty
The Lonely One
Dave Mason
Tabbed by Qua
Caravansery@yahoo.com
Hear Dave play it: https://www.youtube.com/watch?v=iCt4VHQ11W4

[INTRO]

E|-------2---------|-------3---------|-------3---------|-------0---------|
B|-----3------3----|------------3----|------------3----|------------3----|
G|---2-------------|-----2-----------|-----0-----------|-----0-----------| 4x
D|-0---------------|---0-------------|---0-------------|---0-------------|
A|-----------------|-3---------------|-2---------------|-1---------------|
E|-----------------|-----------------|-----------------|-----------------|
                                                              There've been

moments of     despair There've been times I couldn't  care   I was the
E|-------2---------|-------3---------|-------3---------|-------0---------|
B|-----3------3----|------------3----|------------3----|------------3----|
G|---2-------------|-----2-----------|-----0-----------|-----0-----------|
D|-0---------------|---0-------------|---0-------------|---0-------------|
A|-----------------|-3---------------|-2---------------|-1---------------|
E|-----------------|-----------------|-----------------|-----------------|

 lonely one                                                  Then you
E|-------2---------|-------3---------|-------3---------|-------0---------|
B|-----3------3----|------------3----|------------3----|------------3----|
G|---2-------------|-----2-----------|-----0-----------|-----0-----------|
D|-0---------------|---0-------------|---0-------------|---0-------------|
A|-----------------|-3---------------|-2---------------|-1---------------|
E|-----------------|-----------------|-----------------|-----------------|

show'd myself   to me     And I     found I  needn't   be       Another
E|-------2---------|-------3---------|-------3---------|-------0---------|
B|-----3------3----|------------3----|------------3----|------------3----|
G|---2-------------|-----2-----------|-----0-----------|-----0-----------|
D|-0---------------|---0-------------|---0-------------|---0-------------|
A|-----------------|-3---------------|-2---------------|-1---------------|
E|-----------------|-----------------|-----------------|-----------------|

lonely one
E|-------2---------|-------3---------|-------3---------|-------0---------|
B|-----3------3----|------------3----|------------3----|------------3----|
G|---2-------------|-----2-----------|-----0-----------|-----0-----------|
D|-0---------------|---0-------------|---0-------------|---0-------------|
A|-----------------|-3---------------|-2---------------|-1---------------|
E|-----------------|-----------------|-----------------|-----------------|


[CHORUS]

A              G
Running in the wilderness
    D                F#m
And dreaming in the sun
A             G
Crying to the sky at night
    D            F#m
For Gods eternal Son

        Yeah...Yeah
E|-----------------|-----------------|-----------------|-------------------|
B|-----2-----2-----|------3----3-----|------5----5-----|-----7----8----7---|
G|-----------------|-----------------|-----------------|-----------------0-|
D|---2-----2---2---|--2/4----4---4---|--4/6----6---6---|--6/7--7/9--6/7----|
A|-0-----0-------0-|-0-----0-------0-|-0-----0-------0-|-0-----------------|
E|-----------------|-----------------|-----------------|-------------------|

E|-------2---------|-------3---------|-------3---------|-------0---------| repeat 2x
B|-----3------3----|------------3----|------------3----|------------3----|
G|---2-------------|-----2-----------|-----0-----------|-----0-----------|
D|-0---------------|---0-------------|---0-------------|---0-------------|
A|-----------------|-3---------------|-2---------------|-1---------------|
E|-----------------|-----------------|-----------------|-----------------|

Through the truth and through the lies
There is really no disguise
To hide the lonely ones
You can find them on a card
being matched with other hearts
The really lonely ones

E|-------2---------|-------3---------|-------3---------|-------0---------|
B|-----3------3----|------------3----|------------3----|------------3----|
G|---2-------------|-----2-----------|-----0-----------|-----0-----------|
D|-0---------------|---0-------------|---0-------------|---0-------------|
A|-----------------|-3---------------|-2---------------|-1---------------|
E|-----------------|-----------------|-----------------|-----------------|


[CHORUS]
A              G
Running in the wilderness
    D                F#m
And dreaming in the sun
A                 G
and Crying to the sky at night
    D            F#m
For Gods eternal Son

       Oh Yeah...Yeah...Yeah
E|-----------------|-----------------|-----------------|-------------------|
B|-----2-----2-----|------3----3-----|------5----5-----|-----7----8----7---|
G|-----------------|-----------------|-----------------|-----------------0-|
D|---2-----2---2---|--2/4----4---4---|--4/6----6---6---|--6/7--7/9--6/7----|
A|-0-----0-------0-|-0-----0-------0-|-0-----0-------0-|-0-----------------|
E|-----------------|-----------------|-----------------|-------------------|
[BRIDGE]

 G                A                  D                 D
                                                      |--2---2----------|
   Inside your   rooms,            behind your walls  |---3---3---------|
   I see your    face, you know I    hear your call   |-----------2-----|
   Is this a     madness that's been left unchecked   |-0---2---4-------|
                                                      |-----------------|
                                                      |-----------------|

G                  A                 D
   Or will there   always be just    promises?

E|-------2---------|-------3---------|-------3---------|-------0---------| 2x
B|-----3------3----|------------3----|------------3----|------------3----|
G|---2-------------|-----2-----------|-----0-----------|-----0-----------|
D|-0---------------|---0-------------|---0-------------|---0-------------|
A|-----------------|-3---------------|-2---------------|-1---------------|
E|-----------------|-----------------|-----------------|-----------------|


[CHORUS]

A              G
Running in the wilderness
    D                F#m
And dreaming in the sun
A                 G
and Crying to the sky at night
    D            F#m
For Gods eternal Son

        Yeah...Yeah
E|-----------------|-----------------|-----------------|-------------------|
B|-----2-----2-----|------3----3-----|------5----5-----|-----7----8----7---|
G|-----------------|-----------------|-----------------|-----------------0-|
D|---2-----2---2---|--2/4----4---4---|--4/6----6---6---|--6/7--7/9--6/7----|
A|-0-----0-------0-|-0-----0-------0-|-0-----0-------0-|-0-----------------|
E|-----------------|-----------------|-----------------|-------------------|

E|-------2---------|-------3---------|-------3---------|-------0---------| 2x
B|-----3------3----|------------3----|------------3----|------------3----|
G|---2-------------|-----2-----------|-----0-----------|-----0-----------|
D|-0---------------|---0-------------|---0-------------|---0-------------|
A|-----------------|-3---------------|-2---------------|-1---------------|
E|-----------------|-----------------|-----------------|-----------------|

There are men that hold the key
To set everybody free
But they're lonely ones
And if the day should come
When they all can work as one
There'll be a destiny      Yes I know

E|-------2---------|-------3---------|-------3---------|-------0---------|
B|-----3------3----|------------3----|------------3----|------------3----|
G|---2-------------|-----2-----------|-----0-----------|-----0-----------|
D|-0---------------|---0-------------|---0-------------|---0-------------|
A|-----------------|-3---------------|-2---------------|-1---------------|
E|-----------------|-----------------|-----------------|-----------------|


[CHORUS]

A              G
Running in the wilderness
    D                F#m
And dreaming in the sun
A                 G
and Crying to the sky at night
    D            F#m
For Gods eternal Son

        Yeah...Yeah
E|-----------------|-----------------|-----------------|-------------------|
B|-----2-----2-----|------3----3-----|------5----5-----|-----7----8----7---|
G|-----------------|-----------------|-----------------|-----------------0-|
D|---2-----2---2---|--2/4----4---4---|--4/6----6---6---|--6/7--7/9--6/7----|
A|-0-----0-------0-|-0-----0-------0-|-0-----0-------0-|-0-----------------|
E|-----------------|-----------------|-----------------|-------------------|


E|-------2---------|-------3---------|-------3---------|-------0---------| repeat
B|-----3------3----|------------3----|------------3----|------------3----|   and
G|---2-------------|-----2-----------|-----0-----------|-----0-----------|  Fade out
D|-0---------------|---0-------------|---0-------------|---0-------------|
A|-----------------|-3---------------|-2---------------|-1---------------|
E|-----------------|-----------------|-----------------|-----------------|
Suggest correction
Creating personal tab
Creating personal tab
You can edit any tab online and save it as your Personal.

You can edit, replace or remove any tab part or add personal notes – all changes will be seen only by you.

Personal tabs can be accessed anytime from any device, even offline.
Learn more »
Give kudos to tab author, rate the tab!
1 2 3 4 5
comments
print report bad tab
guest
You may want to rate the tab now too:
select rating
Wanna post a correction for this tab? Suggest correction