Oops, an error
Loading. Please wait.

Here On Out tab

619 views 3 this week
3 commentsread comments
1 2 3 4 5
1 last vote to show rating
add to favorites
×
Save as Personal and add changes to this tab that will be seen only by you. Learn more ›
×
You can save this tab as Personal to edit and correct it or add notes. All changes will be seen only by you. Learn more »
launch autoscroll
font size
0
reset
how to read this tab
guitar tuner
edit
Autoscroll
slow
fast
+/-
esc
set tempo
stop
About this tab version
Tabbed from Joshua Bell's Seasons of Cuba. Was this info helpful? Yes No
---------------------------------------------------------------------
                    Here On Out - Dave Matthews
---------------------------------------------------------------------
Tabbed by: M Silvey
E-mail: ATiger579304@gmail.com

Tuning: Standard

[Intro]

   D
e|-------------------------|------------------------|
B|--3--3--3--3--3--3--3--3-|--5p3--3--3--3--3--3--3-|
G|--2--2--2--2--2--2--2--2-|----2--2--2--2--2--2--2-|
D|-0--0--0--0--0--0--0--0--|-0----0--0--0--0--0--0--|
A|-------------------------|------------------------|
E|-------------------------|------------------------|

[Verse 1] 

 Ending varies some to match lyrics

   D           D/G      D/C#    G/F#  G/B   D/A    D/E    D/F#  D/G G/A  G/C# 
e|-------------------------|-------------------------|-------------------------|
B|--3--3--3--3--3--3--3--3-|--3--3--3--3--3--3--3--3-|--3--3--3--3--3--3--3--3-|
G|--2--2--2--2--2--2--2--2-|--2--0--0--0--0--2--2--2-|--2--2--2--2--0--0--0--0-|
D|-0--0--0--0--------------|-------------------------|-------------------------|
A|----------------------4--|-4--------2--2--0--0-----|-------------0--0--4--4--|
E|-------------3--3--3-----|----2--2--------------0--|-0--2--2--3--------------|

  Out of the corner of my eye,  I caught you walked by,  then I chase you down.
  Is it OK if I call you mine.. from here on out?....  As if I could ever stop.
  You are light as a butterfly... As heavy as a rock... The bottom and the top.
  Is it OK if I call you mine.. from here on out?........ If I could ever stop.
 

[Chorus 1]

   G                         A
e|-------------------------|-------------------------|
B|--3--3--3--3--3--3--3--3-|--2--2--2--2--2--2--2--2-|
G|--0--0--0--0--0--0--0--0-|--2--2--2--2--2--2--2--2-|
D|-------------------------|-------------------------|
A|-2--2--2--2--2--2--2--2--|-0--0--0--0--0--0--0--0--|
2|-3--3--3--3--3--3--3--3--|-------------------------|

  And now I'm opened  up.  I am strong.   I'm wild.

   D           D/C#          D/C         D/B
e|-------------------------|-------------------------------------|
B|--3--3--3--3--3--3--3--3-|--3--3--3--3--3--3--3--3--3--3--3--3-|
G|--2--2--2--2--2--2--2--2-|--2--2--2--2--2--2--2--2--2--2--2--2-|
D|-0--0--0--0--------------|-------------------------------------|
A|-------------4--4--4--4--|-3--3--3--3--2--2--2--2--2--2--2--2--|
2|-------------------------|-------------------------------------|       

    Like a storm out the stars in my blood.

   G                         C# (or A)
e|-------------------------|-------------------------|
B|--3--3--3--3--3--3--3--3-|--6--6--6--6--6--6--6--6-|
G|--0--0--0--0--0--0--0--0-|--5--5--5--5--5--5--5--5-|
D|-------------------------|-------------------------|
A|-2--2--2--2--2--2--2--2--|-4--4--4--4--4--4--4--4--|
2|-3--3--3--3--3--3--3--3--|-------------------------|

  It's all because of you.... You my love.

  Is it OK if I call you mine.. from here on out?....  As if I could ever stop.


[Verse 2]

  When your laugh is like a light that fills me up.  'Cause you are my love.
  Like when I fall into your eyes... I can't get out.... I don't wanna stop.
  You are like a butterfly.... You fill me up...... As if I could ever stop.

Repeat Chorus

  Is it OK if I call you mine.. from here on out?....  As if I could ever stop.


[Bridge] 

** 1st measure D on entry, then B on other stanzas

   D                  G                  A                  B        
e|------------------|------------------|------------------|------------------|
B|--3-3-3-3-3-3-3-3-|--3-3-3-3-3-3-3-3-|--2-2-2-2-2-2-2-2-|------------------|
G|--2-2-2-2-2-2-2-2-|--0-0-0-0-0-0-0-0-|--2-2-2-2-2-2-2-2-|--4-4-4-4-4-4-4-4-|
D|-0-0-0-0-0-0-0-0--|------------------|------------------|--4-4-4-4-4-4-4-4-|
A|------------------|-2-2-2-2-2-2-2-2--|-0-0-0-0-0-0-0-0--|-2-2-2-2-2-2-0-0--|
E|------------------|-3-3-3-3-3-3-3-3--|------------------|------------------|

  I want you to know................................................
  I still need ya so................................................
  I want you to know................................................
   G                  A                  G 
  I still need ya so...................................

  Is it OK if I call you mine.. from here on out?....  As if I could ever stop.


[Chorus 3]

  I am old  and  rough.   Old and breakin' apart.      Like a storm out the stars in my blood.
  It's all because of you.... You my love.

  Is it OK if I call you mine.. from here on out?....  As if I could ever stop.

Final Chorus (Repeat Chorus 1)

  Is it OK if I call you mine.. from here on out?....  As if I could ever stop.

Outro (Intro x8-Repeat 2nd measure)


******************************

| p   pull-off

******************************

            
            
Suggest correction
Creating personal tab
Creating personal tab
You can edit any tab online and save it as your Personal.

You can edit, replace or remove any tab part or add personal notes – all changes will be seen only by you.

Personal tabs can be accessed anytime from any device, even offline.
Learn more »
Give kudos to tab author, rate the tab!
1 2 3 4 5
comments
print report bad tab
3 comments total.
0 reply
phazaar 12 Aug 05, 2017 01:59 PM

There's a mistake in the verse portion of the song. Ignoring the awful subdivisions (it's not in triplets, so why 3 hyphens per beat? Makes it look swung when it isn't), the entire bass movement is inaccurate. Starting with there being 3 notes on the first time you use the low G. This puts all of the remaining sequence such that you get lead in notes onto the beat, which feels much nicer. Then to balance that out there's only one hit of the low G towards the end of the phrase rather than two, which then moves to the open A (for 2) not the D string, and then the C# to finish as you have it. I've submitted a correction, though I don't have the time to fix the subdivisions ;)

0 reply
phazaar 12 Aug 05, 2017 02:08 PM

Also the final chord in the chorus should be A with a C# in the bass (x4222x, or x476xx in 'Dave Chords'). The x4x56x sounds awful and is nowhere near harmonically accurate... It includes a Major 7th (read ridiculously dissonant) and a Tritone (the most dissonant sound in a chord...) - actually hurts to listen to lol.

0 reply
ATiger579304 229 Aug 06, 2017 01:52 PM

Thanks for sharing your musical genius.

I try to NOT play anything the same as someone else. I'm not all strung-out on being right or wrong. I expect to be wrong sometimes. On my initial read of your comments, I am sure I do not fully agree with you; but, if I wanted to debate it, I am also sure it would not be with you.

I appreciate constructive criticism, but it seems you aren't very good at that. Maybe I can dissect some from your comments later. Maybe not. I'm no music major, but if I wanted to be, I could only hope that you were not one of the teachers.

guest
You may want to rate the tab now too:
select rating
Wanna post a correction for this tab? Suggest correction