Oops, an error
Loading. Please wait.

Some Devil tab

version 1
version 1

Whole song

36,870 views 3 this week
2 commentsread comments
1 2 3 4 5
x 4
add to favorites
×
Save as Personal and add changes to this tab that will be seen only by you. Learn more ›
×
You can save this tab as Personal to edit and correct it or add notes. All changes will be seen only by you. Learn more »
launch autoscroll
font size
0
reset
how to read this tab
guitar tuner
edit
Autoscroll
slow
fast
+/-
esc
set tempo
stop
Author
Dave Matthews - Some Devil
-------------------------------------------------------------------------------
Tabbed by:brett5

Tuning:eadgbe-standard
        
*intro/verse:(some devil....stuck inside..)
e|---------------------------------------------------------------------------|
B|---------------------------------------------------------------------------|
G|----------7--8--6--------5--6--4-------------------------------------------|
D|----------9--9--7--------7--7--6-------------5----------7------------------|
A|-------------------------------------------5----------7--------------------|
E|-------7--------------7------------------3----------5----------------------|

 *chorus: (you said always and forever)
     
e|---------------------------------------------------------------------------|
B|---------------------------------------------------------------------------|
G|---------------------------------------------------------------------------|
D|-------12----12-----9-----7-----5-----7------------------------------------|
A|-------12----12-----9-----7-----5-----7------------------------------------|
E|-------10-----9-----7-----5-----3-----5------------------------------------|

so far thats what i got. hope its good for ya! love this song.

            
            
Suggest correction
Creating personal tab
Creating personal tab
You can edit any tab online and save it as your Personal.

You can edit, replace or remove any tab part or add personal notes – all changes will be seen only by you.

Personal tabs can be accessed anytime from any device, even offline.
Learn more »
comments
print report bad tab
2 comments total.
+1 reply
dmb41302 10 Oct 11, 2003 08:00 PM

the verse is wrong, there is a much easier way to play it
just turn up the gain,and a delay pedal will help
-----------------------------------
--7-7\--5-5\----3------------------
--8-8\--6-6-\---4------------------
------------------------5-----7----
----------------------5-----7------
--7-----5------(0)--3-----5--------

+1 reply
thisisme08 10 Dec 07, 2008 12:51 PM

great, too bad i can't read tabs! lol if you could get me the chords! that would b great! thaanx

guest
You may want to rate the tab now too:
select rating
Wanna post a correction for this tab? Suggest correction