Oops, an error
Loading. Please wait.

41 Tab

version 1
version 1

Whole song

Interactive

20,276 views 21 this week
2 commentsread comments
1 2 3 4 5
accurate
x 3
add to favorites
launch autoscroll
font size
0
reset
how to read this tab
guitar tuner
Autoscroll
slow
fast
+/-
esc
set tempo
stop
Help us to improve Ultimate-Guitar.com Take our survey!
×
Author
-=-=-=-=-=-=-=-=-=-=-=-=-=-=-=-=-=-=-=
Dave Matthews Band
#41
Crash
Tabbed By Leandro Koren
leandro_koren@yahoo.com.ar
-=-=-=-=-=-=-=-=-=-=-=-=-=-=-=-=-=-=-=

Intro:

This are my intros, for me they sound good. Hope for you too.
These are the basical notes, Dave and Tim play more of them.

Dave's Intro:
With a little distorsion.

      Em/C                D[triad]          Dsus2             Dsus2
E|-|-------------------|-----------------|-----------------|-----0-------0--|-|
B|-|------1-------1----|------3------3---|------5-------5--|----7------7--7-|-|
G|-|----4-------4---4--|----0------0--0--|----7---7---7--7-|--7------7------|-|
D|-|--2-------2--------|--4------4-------|--7-------7------|----------------|-|
A|-|-------------------|-----------------|-----------------|----------------|-|
e|-|-------------------|-----------------|-----------------|----------------|-|

E|-|-------------------|-----------------|-----------------|-----0-------0--|-|
B|-|------1-------1----|------3------3---|------5-------5--|----7--7---7----|-|
G|-|----4---4---4---4--|----0--0---0--0--|----7---7---7--7-|--7------7------|-|
D|-|--2-------2--------|--4------4-------|--7-------7------|----------------|-|
A|-|-------------------|-----------------|-----------------|----------------|-|
e|-|-------------------|-----------------|-----------------|----------------|-|

E|-|-------------------|-----------------|-----------------|-----0-------0--|-|
B|-|------1-------1----|------3------3---|------5-------5--|----7--7---7----|-|
G|-|----4---4---4---4--|----0--0---0--0--|----7---7---7--7-|--7------7------|-|
D|-|--2-------2--------|--4------4-------|--7-------7------|----------------|-|
A|-|-------------------|-----------------|-----------------|----------------|-|
e|-|-------------------|-----------------|-----------------|----------------|-|

E|-|-------------------|-----------------|-----------------|-------------|-|
B|-|------1-------1----|------3------3---|------5-------5--|----8-10-12--|-|
G|-|----4---4---4---4--|----0--0---0--0--|----7---7---7--7-|---7-7-------|-|
D|-|--2-------2--------|--4------4-------|--7-------7------|--0----------|-|
A|-|-------------------|-----------------|-----------------|-------------|-|
e|-|-------------------|-----------------|-----------------|-------------|-|

Tim's Intro:
With a clean sound.

      Em/C                D[triad]          Dsus2             Dsus2
E|-|-------------------|-----------------|-----------------|--0------0---|-|
B|-|--1-------1--------|--3------3-------|--5-------5------|--7------7---|-|
G|-|--4-------4--------|--0------0-------|--7-------7------|--7------7---|-|
D|-|--2-------2--------|--4------4-------|--7-------7------|-------------|-|
A|-|-------------------|-----------------|-----------------|-------------|-|
e|-|-------------------|-----------------|-----------------|-------------|-|

E|-|-------------------|-----------------|-----------------|--0------0---|-|
B|-|--1-------1--------|--3------3-------|--5-------5------|--7------7---|-|
G|-|--4-------4--------|--0------0-------|--7-------7------|--7------7---|-|
D|-|--2-------2--------|--4------4-------|--7-------7------|-------------|-|
A|-|-------------------|-----------------|-----------------|-------------|-|
e|-|-------------------|-----------------|-----------------|-------------|-|

E|-|-------------------|-----------------|-----------------|------10-8-8-7------|-|
B|-|--1-------1--------|--3-------3------|--5-------5------|--7-7----------7/8--|-|
G|-|--4-------4--------|--0-------0------|--7-------7------|--------------------|-|
D|-|--2-------2--------|--4-------4------|--7-------7------|--------------------|-|
A|-|-------------------|-----------------|-----------------|--------------------|-|
e|-|-------------------|-----------------|-----------------|--------------------|-|

E|-|-------------------|-----------------|-----------------|--------10------10--|-|
B|-|--1-------1--------|--3---------3----|--5-------5------|------8-------8-----|-|
G|-|--4-------4--------|--0---------0----|--7-------7------|----7-------7-------|-|
D|-|--2-------2--------|--4---------4----|--7-------7------|--------------------|-|
A|-|-------------------|-----------------|-----------------|--0-------0---------|-|
e|-|-------------------|-----------------|-----------------|--------------------|-|

or Tim's intro could be this one:

E|-|----------------|--------------|-------------------|---------------|-|
B|-|--1-----1-------|--3----3------|--5------5---------|--7-----7------|-|
G|-|--4-----4-------|--0----0------|--7------7---------|--7-----7------|-|
D|-|--2-----2-------|--4----4------|--7------7---------|--0-----0------|-|
A|-|--0-----0-------|--5----5------|--5------5---------|---------------|-|
e|-|----------------|--------------|-------------------|---------------|-|

E|-|----------------|--------------|-------------------|---------------|-|
B|-|--1-----1-------|--3----3------|--5------5---------|--7-----7------|-|
G|-|--4-----4-------|--0----0------|--7------7---------|--7-----7------|-|
D|-|--2-----2-------|--4----4------|--7------7---------|--0-----0------|-|
A|-|--0-----0-------|--5----5------|--5------5---------|---------------|-|
e|-|----------------|--------------|-------------------|---------------|-|

E|-|---------0------|---------------|-------------|---------10--8-8-7----|-|
B|-|-------1---1----|----------3----|---------5---|------7-7----------8--|-|
G|-|------4------4--|------0----0---|-----7----7--|--7-9-----------------|-|
D|-|----2---2-------|----4---4---4--|----7--------|----------------------|-|
A|-|----------------|--5------------|--5----5-----|----------------------|-|
e|-|----------------|---------------|-------------|----------------------|-|

E|-|---------0------|---------------|-------------|---------10------10--|-|
B|-|-------1---1----|----------3----|---------5---|--------8-------8----|-|
G|-|------4------4--|------0----0---|-----7----7--|--X----7-------7-----|-|
D|-|----2---2-------|----4---4---4--|----7--------|--X------------------|-|
A|-|----------------|--5------------|--5----5-----|--X--0-------0-------|-|
e|-|----------------|---------------|-------------|---------------------|-|

or another way to play the intro:

Dave's Guitar:

E|-|----------------|--------------|-------------------|---------------|-|
B|-|------1-----1---|------3----3--|------5-------5----|----7-----7----|-|
G|-|----4-----4-----|----0----0----|----7---7---7------|--7--9--7---9--|-|
D|-|--2-----2-------|--4----4------|--7-------7--------|---------------|-|
A|-|----------------|--------------|-------------------|---------------|-|
e|-|----------------|--------------|-------------------|---------------|-|

E|-|----------------|--------------|-------------------|---------------|-|
B|-|------1-----1---|------3----3--|------5-------5----|----7-----7----|-|
G|-|----4-----4--4--|----0----0--0-|----7---7---7---7--|--7--9--7---9--|-|
D|-|--2-----2-------|--4----4------|--7-------7--------|---------------|-|
A|-|----------------|--------------|-------------------|---------------|-|
e|-|----------------|--------------|-------------------|---------------|-|

E|-|----------------|--------------|-------------------|---------------|-|
B|-|------1-----1---|------3----3--|------5-------5----|----7-----7----|-|
G|-|----4-----4-----|----0----0----|----7---7---7------|--7--9--7---9--|-|
D|-|--2-----2-------|--4----4------|--7-------7--------|---------------|-|
A|-|----------------|--------------|-------------------|---------------|-|
e|-|----------------|--------------|-------------------|---------------|-|

E|-|----------------|--------------|-------------------|---------------|-|
B|-|------1-----1---|------3----3--|------5-------5----|----7-----7----|-|
G|-|----4-----4--4--|----0----0--0-|----7---7---7---7--|--7--9--7---9--|-|
D|-|--2-----2-------|--4----4------|--7-------7------7-|---------------|-|
A|-|----------------|--------------|-------------------|---------------|-|
e|-|----------------|--------------|-------------------|---------------|-|

Tim's Guitar:

E|-|----------------|--------------|-------------------|---------------|-|
B|-|--1-----1-------|--3----3------|--5------5---------|--7-----7------|-|
G|-|--4-----4-------|--0----0------|--7------7---------|--7-----7------|-|
D|-|--2-----2-------|--4----4------|--7------7---------|--0-----0------|-|
A|-|--0-----0-------|--5----5------|--5------5---------|---------------|-|
e|-|----------------|--------------|-------------------|---------------|-|

E|-|----------------|--------------|-------------------|---------------|-|
B|-|--1-----1-------|--3----3------|--5------5---------|--7-----7------|-|
G|-|--4-----4-------|--0----0------|--7------7---------|--7-----7------|-|
D|-|--2-----2-------|--4----4------|--7------7---------|--0-----0------|-|
A|-|--0-----0-------|--5----5------|--5------5---------|---------------|-|
e|-|----------------|--------------|-------------------|---------------|-|

E|-|---------0------|---------------|-------------|---------10--8-8-7----|-|
B|-|-------1---1----|----------3----|---------5---|------7-7----------8--|-|
G|-|------4------4--|------0----0---|-----7----7--|--7-9-----------------|-|
D|-|----2---2-------|----4---4---4--|----7--------|----------------------|-|
A|-|----------------|--5------------|--5----5-----|----------------------|-|
e|-|----------------|---------------|-------------|----------------------|-|

E|-|---------0------|---------------|-------------|---------10------10--|-|
B|-|-------1---1----|----------3----|---------5---|--------8-------8----|-|
G|-|------4------4--|------0----0---|-----7----7--|--X----7-------7-----|-|
D|-|----2---2-------|----4---4---4--|----7--------|--X------------------|-|
A|-|----------------|--5------------|--5----5-----|--X--0-------0-------|-|
e|-|----------------|---------------|-------------|---------------------|-|

Verse:
Tim's Verse:

E|-|-----10----10--|-----10----10--|-----10----10--|-----10----10--|-|
B|-|-----8-----8---|-----8-----8---|-----8-----8---|-----8-----8---|-|
G|-|----7-----7----|----7-----7----|----7-----7----|----7-----7----|-|
D|-|---------------|---------------|---------------|---0-----0-----|-|
A|-|--0----0-------|---------------|---7----7------|---------------|-|
e|-|---------------|--7-----7------|---------------|---------------|-|

Dave's Verse:

       Dsus4/A        Dsus4/B        Dsus4/E       Dsus4
E|-|--------------|--------------|-------------|---------------|-|
B|-|----8---8-----|---8------8---|----8-----8--|----8-----8----|-|
G|-|----7---7-----|---7------7---|----7-----7--|----7-----7----|-|
D|-|--------------|--------------|-------------|---------------|-|
A|-|--------------|--------------|---7----7----|---5-----5-----|-|
e|-|---5---5------|--7-----7-----|-------------|---------------|-|

Another way to play the chords:

       Dsus4/A        Dsus4/B        Dsus4/E       Dsus4
E|-|---3---3------|---3---3------|---3---3-----|---3---3-------|-|
B|-|---3---3------|---3---3------|---3---3-----|---3---3-------|-|
G|-|---2---2------|---2---2------|---2---2-----|---2---2-------|-|
D|-|---X---X------|---X---X------|---2---2-----|---0---0-------|-|
A|-|---0---0------|---2---2------|---X---X-----|---X---X-------|-|
e|-|---X---X------|---X---X------|---X---X-----|---X---X-------|-|

Verse:

Come see
I swear by now I'm playing time against my troubles, oh
Oh, I'm coming slow but speeding
Do you wish a dance and while I'm in the front
The play on time is won, oh     [Figure 1][Figure 2]
But the difficulty is coming here

[Figure 1]:
Tim play this part. Play it until Dave start to sing the chorus.

E|-|--10--7--5--|-|--10--7--5--|-|
B|-|--8---8--8--|-|--8---8--8--|-|
G|-|--7---7--7--|-|--7---7--7--|-|
D|-|------------|-|------------|-|
A|-|------------|-|------------|-|
e|-|------------|-|------------|-|

[Figure 2]:
Leroi played that.

[]: You have to repeat this part many times.

     [                  ]
E|-|--5/7h5--3-3---5/7h5--3-3-5-7--|-|
B|-|-------------------------------|-|
G|-|-------------------------------|-|
D|-|-------------------------------|-|
A|-|-------------------------------|-|
e|-|-------------------------------|-|

Chorus:

These are the chords:

       G      D/F#   Cmaj7
E|-|---3---|---0---|---0---|-|
B|-|---3---|---3---|---0---|-|
G|-|---0---|---2---|---0---|-|
D|-|---0---|---0---|---2---|-|
A|-|---2---|---0---|---3---|-|
e|-|---3---|---2---|---X---|-|

G        D/F#      Cmaj7
I will go in this way
And find my own way out
G            D/F#      Cmaj7
I won't tell you to leave
But I'm coming to much more

Verse:
The first two lines Tim's plays the intro chords with a little distorsion.

      Em/C  D[t]  Dsus2 Dsus2
E|-|--------------------------|-|
B|-|----1-----3-----5-----7---|-|
G|-|---4-----0-----7-----7----|-|
D|-|--2-----4-----7-----0-----|-|
A|-|--------------------------|-|
e|-|--------------------------|-|

Me
Come down the ghosts come back
Reeling in you now, oh
What if they came down crushing
In the wake I used to play for
All the loneliness that nobody notices now
Oh, begging slow I'm coming here

Chorus:

             G           D/F#
Only waiting I wanted to stay
            Cmaj7
I wanted to play, I wanted to love you
G             D/F#
I'm only this far
            Cmaj7               (The others lyrics as the same)
And only tomorrow leads the way
I'm coming waltzing back and moving into you head
Please, I wouldn't pass this by
I wouldn't take any more than
What sort of man goes by
I will bring water
Why won't you ever be glad
It melts into wonder
I came in praying for you
Why won't you run in to rain and play
And let the tears splash all over you

End: Violin solo & Flute Solo & Sax Solo:
Dave's Guitar: With chorus chords and then play the intro
with some variations.
Tim's Guitar after saxo solo and before flute solo.

E|-|----10-10----7-8-7--5----5-7---5--|-|
B|-|---8--------8-----------8-----7---|-|
G|-|--7--------7-----------7-----7----|-|
D|-|----------------------------------|-|
A|-|----------------------------------|-|
e|-|----------------------------------|-| X 3


If they have trouble playin this, just mail me.
Suggest correction
Give kudos to tab author, rate the tab!
1 2 3 4 5
comments
print report bad tab
2 comments total.
0 reply
LastRockShow 191 wrote on June 26 2004, 12:00 am

best 41 tab i've seen yet! awesome, very awesome!

0 reply
James TH 191 wrote on July 6 2009, 04:38 pm

good tab man
i like how you have tim's parts in here too, that little bonus

guest
You may want to rate the tab now too:
select rating
Please do not post tabs as comments. Select "correction" instead!