Oops, an error
Loading. Please wait.

41 Tab

version 3
version 3

Whole song

Interactive

7,742 views 21 this week
no commentswrite comment
1 2 3 4 5
please rate
add to favorites
launch autoscroll
font size
0
reset
how to read this tab
guitar tuner
Autoscroll
slow
fast
+/-
esc
set tempo
stop
Help us to improve Ultimate-Guitar.com Take our survey!
×
Contributor
EZI 32
                           #41 - Dave Matthews Band
-------------------------------------------------------------------------------
Tabbed by:EZI
Email:e_mac69@yahoo.com
album: dave matthews feat tim reynolds: live at luther college
Note: this song is awesome requires a lot of streching before hand
      get some good use out of your pinki finger
      solo isnt finished, what can i say they are bad a??

Tuning:standard

e|-------------------------------------------------------------------------
B|----------0--0-------------------0--0------------------8--  8------------
G|----------5--0-------------------7--0------------------4--  4------------
D|-------2--2--2-------------4-----4--4---------- 5----- 5--  5------------
A|----3-----3--3----------5-----5--5--5---------7---7----7--- 7------------
E|-5------------------7-----------------------0------------ 0--------------
     
e|----H--------------P------------------------------------------------------
B|--0--3-----3-----3--0-----------------------------------------------------
G|--0--0-----0-----0--0---0-------------------------------------------------
D|--4--4-----4-----4--4-----------------------------------------------------
A|--5--5-----5-----5--5-----------------------------------------------------
E|--------------------------------------------------------------------------
     CHORUS
e|---3--3--3---0---0--------3---3---0--0--------------3--3---0--0-----------
B|---3--3--3---3---3--------3---3---3--3--------------3--3---3--3-----------
G|---0--0--0---0---0--------0---0---0--0--------------0--0---0--0-----------
D|---0--0--0---0---0--------0---0---0--0--------------2--2---2--2-----------
A|---2--2--2---2---2-------------------------0--2--3--3--3---3--3-----------
E|---3--3--3---3---3-------2------------------------------------------------
   Note: on both parts a lot of up and down strumming, emphasis on bottom 3 strings
e|--3--3--3-----0--0----0----0--0-----------3-3-3--3-3-3--3-3-3--3-3-5-----3-
B|--3--3--3-----3--3----3----3--3-----------3-3-3--3-3-3--3-3-3--3-3-3-----3-
G|--0--0--0-----0--0----0----0--0-----------0-0-0--0-0-0--0-0-0--0-0-0-----0-
D|--2--2--2-----2--2----2----2--2------------------------------------2-----0
A|--3--3--3-----3--3----3----3--3------------------------------------3-----2-
E|-------------------------------------------------------------------------3-
   Note: this is not the exact strumming pattern. listen to song for timing & srumming pattern

   Partial Solo
e|---------------------------------------------------------------------------
B|---------------------------------------------------------------------------
G|------------------------------16--14--12-----------------------------------
D|---(17)----12------------------------------16--14--12------ H-----12-------
A|-------------12------------------------------------------12--14-------12---
E|-----------------14--15----------------------------------------------------

e|---------------------------------------------------------------------------
B|---------------------------------------------------------------------------
G|--16--17--16-----14-14--------16\12--14------------------------------------
D|-------------------------------------------16-14-12------h---12-----h--14--
A|------------------------------------------------------12--14-----12--14----
E|---------------------------------------------------------------------------

e|---------------------------------------------------------------------------
B|---------------------------------------------------------------------------
G|-------------------------------------12-12---------------------------------
D|----h-----16\14-------h------12--14----------------------------------------
A|-12--14------------12---14-------------------------------------------------
E|---------------------------------------------------------------------------

e|---------------------------------------------------------------------------
B|----------^---------^------15----15-15-15\13-12-10-------------------------
G|-14--16--16----14--16---14----16-------------------------------------------
D|---------------------------------------------------------------------------
A|---------------------------------------------------------------------------
E|---------------------------------------------------------------------------

e|---------------------------------------------------------------------------
B|-7-7-7-7--10--7-7--10--7-----10-10-10-10--12--10-10--12--10----------------
G|---------------------------------------------------------------------------
D|---------------------------------------------------------------------------
A|---------------------------------------------------------------------------
E|---------------------------------------------------------------------------
 
e|--------------------------------------8--8---------------------------------
B|-8--10--12--10--8---10--10-8-8-8--10--------10---8-------------------------
G|---------------------------------------------------------------------------
D|---------------------------------------------------------------------------
A|---------------------------------------------------------------------------
E|---------------------------------------------------------------------------
 ^  bend note
| /  slide up
| \  slide down
| h  hammer-on
| p  pull-off
| ~  vibrato
| +  harmonic
|
comments
We did not receive enough feedback on this tab! Please rate:
print report bad tab
1 2 3 4 5
I want to post or [tab]
guest
You may want to rate the tab now too:
select rating
Please do not post tabs as comments. Select "correction" instead!