Oops, an error
Loading. Please wait.

All Along The Watchtower Tab

version 2
version 2

Whole song

Interactive

5,794 views 6 this week
no commentswrite comment
1 2 3 4 5
please rate
add to favorites
launch autoscroll
font size
0
reset
how to read this tab
guitar tuner
Autoscroll
slow
fast
+/-
esc
set tempo
stop
Help us to improve Ultimate-Guitar.com Take our survey!
×
Author
-------------------------------------------------------------------------------
                             All Along the Watchtower - Dave Matthews Band
-------------------------------------------------------------------------------
this is my first tab so i hope it does not blow too badly, and some of the numbers look 
but unless they are obviously apart play it as one chord
Tabbed by:sobol.connor
Email:sobol.connor@gmail.com

Tuning:standard

e|---------5------------ 5-------3----------3-------1------------1-------------------|
B|---------5------------ 5-------3----------3-------1------------1-------------------|
G|-----------------------------------------------------------------------------------|
D|-----------------------------------------------------------------------------------|
A|-----------------------------------------------------------------------------------|
E|---------5------5-------------3-----3------------1------1--------------------------|
repeat for1:20|

e|--------------------------------------------------------------------------------------|
B|--------------------------------------------------------------------------------------|
G|--------------------------------------------------------------------------------------|
D|--------------------------------------------------------------------------------------|
A|--------------------------------------------------------------------------------------|
E|----5--5---3--3---1--1--- 1-1-3---5--5---3--3---1--1---1-1-3--------------------------|
do this till 2:09-|

e|-------------------------------- 1-----------------------------------------------------|
B|------1---1--------------------- 1-----------------------------------------------------|
G|----- 2---2------0--- 0----------2-----------------------------------------------------|
D|----- 2---2------0--- 0----------3-----------------------------------------------------|
A|----- 0---0------2--- 2------3---3-----3---3--2----------------------------------------|
E|---------------- 3--- 3------1---1-----1---1--3----------------------------------------|
repeat till 3:00-|

e|------------------------- 1---1-1-1-1-1--1--1-1-1-1-1--1--1-1-1-1-1--|
B|----------1---1-1-1-1-1-- 0---0-0-0-0-0--1--1-1-1-1-1--0--0-0-0-0-0--|
G|----------2---2-2-2-2-2-- 0---0-0-0-0-0--2--2-2-2-2-2--0--0-0-0-0-0--|
D|----------2---2-2-2-2-2-- 0---0-0-0-0-0--3--3-3-3-3-3--0--0-0-0-0-0--|
A|----------0---0-0-0-0-0-- 2---2-2-2-2-2--3--3-3-3-3-3--2--2-2-2-2-2--|
E|------------------------- 3---3-3-3-3-3--1--1-1-1-1-1--3--3-3-3-3-3--|
pretty much does that the rest of the time|


| /  slide up
| \  slide down
| h  hammer-on
| p  pull-off
| ~  vibrato
| +  harmonic
| x  Mute note
===============================================================================
Suggest correction
What's this?
You can suggest a correction to this tab. Community and Mods will review your correction and vote to approve or reject it.
comments
We did not receive enough feedback on this tab! Please rate:
print report bad tab
1 2 3 4 5
guest
You may want to rate the tab now too:
select rating
Please do not post tabs as comments. Select "correction" instead!