Oops, an error
Loading. Please wait.

Alligator Pie Tab

version 2
version 2

Whole song

26,980 views 15 this week
no commentswrite comment
1 2 3 4 5
x 6
add to favorites
launch autoscroll
font size
0
reset
how to read this tab
guitar tuner
Autoscroll
slow
fast
+/-
esc
set tempo
stop
Help us to improve Ultimate-Guitar.com Take our survey!
×
Author
Difficulty
Capo
intermediate
7th fret
Alligator Pie (Cockadile)
Artist: Dave Matthews Band
Album: Big Whiskey and the GrooGrux King

Tuning: Raised B (Capo 7)

tabbed from various 2009 live performances

Contributor: Daniel Schnall

Intro
e|----------------|------------------|
B|----------------|------------------|
G|-------------2--|----------(2)-(4)-|
D|----3-2p0--0----|----3-2p0--3---5--|
A|--5-------------|--5--------3---5--|
E|----------------|-----------1---3--|

e|-----------------|---------|
B|------------3----|---------|
G|----------2------|-(2)-(4)-|
D|----3-2p0-----0--|--3---5--|
A|--5--------------|--3---5--|
E|-----------------|--1---3--|

Verse
e|-------------|------------------|
B|----------3--|------------------|
G|----------2--|----------(2)-(4)-|
D|----3-2p0-0--|----3-2p0--3---5--|
A|--5----------|--5--------3---5--|
E|-------------|-----------1---3--|

e|-------------|---------|
B|----------3--|---------|
G|----------2--|-(2)-(4)-|
D|----3-2p0-0--|--3---5--|
A|--5----------|--3---5--|
E|-------------|--1---3--|

Jam
e|-----------------------------------|
B|-----------------------------------|
G|--5/7-7--7-7-7-7---5/7-7--9\7-7-7--|
D|--x-x-x--x-x-x-x---x-x-x--x-x-x-x--|
A|--3/5-5--5-5-5-5---3/5-5--7\5-5-5--|
E|-----------------------------------|

e|------------------|-----------------|
B|------------------|-----------------|
G|--5/7-7--7-7-7-7--|-(2)-(2)-(4)-(4)-|
D|--x-x-x--x-x-x-x--|--3---3---5---5--|
A|--3/5-5--5-5-5-5--|--3---3---5---5--|
E|------------------|--1---1---3---3--|

Bridge (x2)
e|--0---3---2---0--|
B|--2---0---3---2--|
G|--2---0---4---2--|
D|--2---0---4---2--|
A|--0---2---2---0--|
E|------3----------|

e|--3---0---3---0--|
B|--0---2---0---2--|
G|--0---2---0---2--|
D|--0---2---0---2--|
A|--2---0---2---0--|
E|--3-------3------|


Legend:
 p   Pull off
(n)  Ghost note
 x   Dead note
 /   Slide into from below or out of upwards
 \   Slide into from above or out of downwards
Suggest correction
comments
print report bad tab
guest
You may want to rate the tab now too:
select rating
Wanna post a correction for this tab? Suggest correction