Oops, an error
Loading. Please wait.

Alligator Pie Tab

version 5
version 5

Whole song

1,083 views 1 this week
no commentswrite comment
1 2 3 4 5
2 more votes to show rating
add to favorites
launch autoscroll
font size
0
reset
how to read this tab
guitar tuner
Autoscroll
slow
fast
+/-
esc
set tempo
stop
Help us to improve Ultimate-Guitar.com Take our survey!
×
Author
Alligator Pie by Dave Matthews Band
Tabbed by Kevin Dorth
Standard Tuning

Listen to the song and play along to get the timing.
Play chords where I've written more than one note at a time.

Intro and Verse:
e|--------(5)--------------|
B|---------5---------------|
G|---5-4-2---2---5-4-2-5-7-|
D|---------------------5-7-|
A|-0-----------0-------3-5-|
E|-------------------------|

e|-----------| x 3
B|-----------|
G|-----------|
D|-7-5-7-9-7-|
A|-X-X-X-X-X-|
E|-5-3-5-7-5-|

e|-----|
B|-----|
G|-5-7-|
D|-5-7-|
A|-3-5-|
E|-----|

e|-----------| x 3
B|-----------|
G|-----------|
D|-7-5-7-9-7-|
A|-X-X-X-X-X-|
E|-5-3-5-7-5-|

e|-----|
B|-----|
G|-5-7-|
D|-5-7-|
A|-3-5-|
E|-----|

Repeat the verse and play with the song as it starts out slow and gets faster.

Bridge:
e|-0-3-2-0-3-0-3-0-|
B|-0-2-2-0-2-0-2-0-|
G|-1-3-2-1-2-1-3-1-|
D|-2-0-4-2-0-2-0-2-|
A|-2---4-2---2---2-|
E|-0---2-0---0---0-|

Then return to the verse.
Suggest correction
Give kudos to tab author, rate the tab!
1 2 3 4 5
comments
print report bad tab
guest
You may want to rate the tab now too:
select rating
Wanna post a correction for this tab? Suggest correction